Oops, an error
Loading. Please wait.

Automatic Pulse Tab

479 views 6 this week
no commentswrite comment
1 2 3 4 5
please rate
add to favorites
launch autoscroll
font size
0
reset
how to read this tab
guitar tuner
Autoscroll
slow
fast
+/-
esc
set tempo
stop
Help us to improve Ultimate-Guitar.com Take our survey!
×
Author
AUTOMATIC PULSE FROM "GUILLOTINE"

Insane song, any ideas email me: stillman55@hotmail.com


Tuning:Normal

Intro:

e|-------------------------------------------------------------------------|
B|-------------------------------------------------------------------------|
G|-------------------------------------------------------------------------|
D|---2--5/14---------------------------------------------------------------|
A|---2--5/14---------------------------------------------------------------|
E|---0--3/12---------------------------------------------------------------|


Verse:


e|-------------------------------------------------------------------------|
B|-------------------------------------------------------------------------|
G|-------------------------------------------------------------------------|
D|--2--5/--2--5--7---------------------------------------------------------|
A|--2--5/--2--5--7---------------------------------------------------------|
E|--0--3/--0--3--5---------------------------------------------------------|

 Then just scratch the string by lightly covering all strings with your   hand.Repeat 
the scratch bit, then play this.

e|---------------------------------------------------------------------------|
B|---------------------------------------------------------------------------|
G|---------------------------------------------------------------------------|
D|--5--4--3------------------------------------------------------------------|
A|--5--4--3------------------------------------------------------------------|
E|--3--2--1------------------------------------------------------------------|

 Then repeat the intro twice then to the "Dont flick the switch now baby" part and the chorus:

e|-------------------------------------------------------------------------|
B|-------------------------------------------------------------------------|
G|-------------------------------------------------------------------------|
D|--5--7--2-----------2----------7--5--4--3--------------------------------|
A|--5--7--2---777777--2--777777--7--5--4--3--------------------------------|
E|--3--5--0---000000--0--000000--5--3--2--1--------------------------------|


 Then to the intro then verse and pre chorus and chorus but the chorus has a new backing guitar:

e|-------------------------------------------------------------------------|
B|-------------------------------------------------------------------------|
G|-------------------------------------------------------------------------|
D|-------------------------------------------------------------------------|
A|--7777777766666655555555444433332222-------------------------------------|
E|-------------------------------------------------------------------------|


 This part has the other chorus guitar behind it
 then there is a second chorus whiich is slightly different:


e|---------------------------------------------------------------------------|
B|---------------------------------------------------------------------------|
G|---------------------------------------------------------------------------|
D|---222222222-------2------22222222--7--7777777-----------------------------|
A|---222222222-------2------22222222--7--7777777-----------------------------|
E|---000000000-------0------00000000--5--5555555-----------------------------|
     PM-------              PM------     PM----------------------------------|

 That part is prett hard to tab but you get this jist of it.

 Then just play the intro (E,G,E) with a solo over the top.

 Then play the intro inbetween and after the bass/drum solos.

 Then the dont flick the switch bit.


e|-------------------------------------------------------------------------|
B|-------------------------------------------------------------------------|
G|-------------------------------------------------------------------------|
D|--22222222222222-7777777777777777-----------55555555555--7777777777------|
A|--22222222222222-7777777777777777---(twice)-55555555555--7777777777------|
E|--00000000000000-5555555555555555-----------33333333333--5555555555------|


  Then just play open E inbetween the "PULSE!" bits.


| /  slide up
| \  slide down
| h  hammer-on
| p  pull-off
| ~  vibrato
| +  harmonic
| x  Mute note
============================================================================
Suggest correction
Give kudos to tab author, rate the tab!
1 2 3 4 5
comments
print report bad tab
guest
You may want to rate the tab now too:
select rating
Wanna post a correction for this tab? Suggest correction