Oops, an error
Loading. Please wait.

Black And White Radio Tab

1,629 views 6 this week
2 commentsread comments
1 2 3 4 5
excellent!
x 3
add to favorites
launch autoscroll
font size
0
reset
how to read this tab
guitar tuner
Tab Pro tools
  • play this tab
  • loop segment
  • change instrument
  • show fretboard
  • metronome
×
Best way to learn
"Black And White Radio"
Autoscroll
slow
fast
+/-
esc
set tempo
stop
Contributor
( t: Trill pick )
((): Harmonics  )
( b: Bend       )


Intro
e-----------------|
b-----------------|
g-----------------|
d-----------------| x2
a-5555555555555555
d-----------------

e-----------------------------------------------------------|
b-----------------------------------------------------------|
g---19-19---------19-19---------19-19-----------------------|
d----------18-18---------18-18---------18-18-15-15-15-17-14-|
a-00-----00-----00-----00-----00-----00---------------------|
d-00-----00-----00-----00-----00-----00---------------------|

e----------------------------------------------------------|
b----------------------------------------------------------|
g---19-19---------19-19---------19-19-------20-20-20-20-20-|
d----------18-18---------18-18---------18-18---------------|
a-00-----00-----00-----00-----00-----00--------------------|
d-00-----00-----00-----00-----00-----00--------------------|


e-------------------------------------|
b-------------------------------------|
g-------------------------------------|
d-7-7-7-7--7-7-7-7--7-7-7-7--7-7-7-7--|
a-5-5-5-5--5-5-5-5--5-5-5-5--5-5-5-5--|
d-0-0-0-0--0-0-0-0--0-0-0-0--0-0-0-0--|

Fill 1
e------------------------------------------|
b------------------------------------------|
g------------------------------------------|
d------------------------------------------|  x2
a-17-17-15-15-12-12-10-10-8-8-8-10-7-7-7---|
d-0--0--0--0--0--0--0--0--0-0-0-0--0-0-0---|

Verse
e------------------------|
b------------------------|
g-7------8-7------10-8-7-|
d-7------8-7------10-8-7-|
a-5------6-5------8--6-5-|
d-0--------0-----------0-|

Fill 2
e-----------------|
b-----------------|
g-----------------|
d-7777777777777777
a-5555555555555555
d-0000000000000000

Verse

Chorus
e---------------------------------------------------------|
b---------------------------------------------------------|
g----------(12)----------(7)----------(12)----------------|
d-77777777-(12)-77777777-(7)-77777777-(12)-7777777777777--|
a-55555555-(12)-55555555-(7)-55555555-(12)-5555555555555--|
d-00000000------00000000-----00000000------0000000000000--|

e-------------------------------------|
b-------------------------------------|
g-------------------------------------|
d-7-7-7-7--7-7-7-7--7-7-7-7--7-7-7-7--| x2
a-5-5-5-5--5-5-5-5--5-5-5-5--5-5-5-5--|
d-0-0-0-0--0-0-0-0--0-0-0-0--0-0-0-0--|

Fill 1
Verse
Chorus

Bridge
e-----------------------------------|
b-----------------------------------|
g-----------------------------------|
d-----33------33------33------33----| x2
a---55--55--55--55--55--55--55--55--|
d-00------00------00------00--------|

e---------------------------|
b---------------------------|
g---------------------------|
d-7-7-7-7-------------------|
a-5-5-5-5--5555555555555555-|
d-0-0-0-0-------------------|

Solo
e-------------------------------------|
b---------15-16-18-16-15--------------|
g-14-15-17---------------17-14-17-16--|
d-------------------------------------| x2
a-------------------------------------|
d-------------------------------------|

e-----------------t21-b-22--|
b-t15-t17-t18-t17-----------|
g---------------------------|
d---------------------------|
a---------------------------|
d---------------------------|

e-------------------------------------|
b-------------------------------------|
g-------------------------------------|
d-7-7-7-7--7-7-7-7--7-7-7-7--7-7-7-7--|
a-5-5-5-5--5-5-5-5--5-5-5-5--5-5-5-5--|
d-0-0-0-0--0-0-0-0--0-0-0-0--0-0-0-0--|

e---------------------|
b---------------------|
g---------------------|
d-7-7-7-7-7-7-7-7-7-7-| Let ring
a-5-5-5-5-5-5-5-5-5-5-|
d-0-0-0-0-0-0-0-0-0-0-|

www.britishindia.com.au
comments
We did not receive enough feedback on this tab! Please rate:
print report bad tab
1 2 3 4 5
2 comments total.
0 reply
stillman55 wrote on December 30 2007, 03:05 am

this is in drop D right...

0 reply
Erkus wrote on March 7 2008, 04:29 am

^ yes.

great tab 5 stars.

I want to post or [tab]
guest
You may want to rate the tab now too:
select rating
Please do not post tabs as comments. Select "correction" instead!