Oops, an error
Loading. Please wait.

God Is Dead Meet The Kids Tab

5,656 views 1 this week
no commentswrite comment
1 2 3 4 5
x 4
add to favorites
launch autoscroll
font size
0
reset
how to read this tab
guitar tuner
Autoscroll
slow
fast
+/-
esc
set tempo
stop
Help us to improve Ultimate-Guitar.com Take our survey!
×
Song: God is Dead, Meet the Kids
Artist: British India
Album: Thieves [2008]
by Chris

The tuning is half a step down, every song on the album is and no one has
seemed to notice in other British India tabs.

Intro:
e----------------------------------------------------|
B----------------------------------------------------|
G----------------------------------------------------|
D----------------------------------------------------|
A--------------14/16-16-11-11------------12-11-9-7-7-|
E-0000000000000-0--0--0--0--0-00000000000-0--0-0-0-0-|

e----------------------------------------------------|
B----------------------------------------------------|
G----------------------------------------------------|
D----------------------------------------------------|
A-----------14/16-16-11-11------------12-11-9-7-7----|
E-0000000000-0--0--0--0--0-00000000000-0--0-0-0-0----|

Verse 1:
e--------------------------------------|
B--------------------------------------|
G--------------------------------------|
D--------------------------------------|
A-7777777777777777-7777777777777777----|
E-0000000000000000-5555555555555555----| x2

e--------------------------------------|
B--------------------------------------|
G-9999999999999999---------------------|
D-9999999999999999---------------------|
A-7777777777777777-7777777777777777----|
E-0000000000000000-5555555555555555----| x2

e--------------------------------------|
B--------------------------------------|
G--------------------------------------|
D--------------------------------------|
A-7777777777777777-7777777777777777----|
E-0000000000000000-5555555555555555----| x4

Chorus: (Two Guitars)
Guitar 1
e--------------------------------------|
B--------------------------------------|
G-9999999999999999---------------------|
D-9999999999999999-7777777777777777----|
A-7777777777777777-7777777777777777----| x4
E------------------5555555555555555----|

Guitar 2
e-12--12--12--12--12---16--16-12--12--12--|
B---12--12--12--12---14--14-----12--12----|
G-----------------------------------------|
D-----------------------------------------|
A-----------------------------------------| x4
E-----------------------------------------|

Bridge:
e-----------0~--------------0~----|
B-----------0~--------------0~----|
G---------1---------------2-------|
D---------2---------2-2-2-2-------|
A---2-2-2-----------0-0-0---------| x2
E---0-0-0-------------------------|

Verse 2:
e--------------------------------------|
B--------------------------------------|
G--------------------------------------|
D--------------------------------------|
A-7777777777777777-7777777777777777----|
E-0000000000000000-5555555555555555----| x4

Pre-Chorus: (x2)
e-----------------------------------------------|
B-----------------------------------------------|
G-9-9-9-9-11-11-11-11-13-13-13-13-16-16-16-16---|
D-x-x-x-x--x--x--x--x--x--x--x--x--x--x--x--x---|
A-7-7-7-7--9--9--9--9-11-11-11-11-14-14-14-14---|
E-0-0-0-0--0--0--0--0--0--0---0--0--0--0--0--0--|

e-----------------------------------|
B-----------------------------------|
G-2-2-2-2-4-4-4-4-6-6-6-6-9-9-9-9---|
D-2-2-2-2-2-2-2-2-7-7-7-7-7-7-7-7---|
A-0-0-0-0-0-0-0-0-0-0-0-0-0-0-0-0---|
E-----------------------------------|

Chorus: (Two Guitars)
Guitar 1
e--------------------------------------|
B--------------------------------------|
G-9999999999999999---------------------|
D-9999999999999999-7777777777777777----|
A-7777777777777777-7777777777777777----| x4
E------------------5555555555555555----|

Guitar 2
e-12--12--12--12--12---16--16-12--12--12--|
B---12--12--12--12---14--14-----12--12----|
G-----------------------------------------|
D-----------------------------------------|
A-----------------------------------------| x4
E-----------------------------------------|

End on:
e----------|
B----------|
G----9~----|
D----9~----|
A----7~----|
E----0~----|
Suggest correction
comments
print report bad tab
guest
You may want to rate the tab now too:
select rating
Wanna post a correction for this tab? Suggest correction