Oops, an error
Loading. Please wait.

I Can Make You Love Me Tab

version 1
version 1

Intro

Interactive

11,418 views 12 this week
2 commentsread comments
1 2 3 4 5
x 7
add to favorites
launch autoscroll
font size
0
reset
how to read this tab
guitar tuner
Autoscroll
slow
fast
+/-
esc
set tempo
stop
Help us to improve Ultimate-Guitar.com Take our survey!
×
-------------------------------------------------------------------------------
                             I Can Make You Love Me - British India
-------------------------------------------------------------------------------
Tabbed by: Lachie Gilmour
E-mail: lachie.gee.mour@gmail.com

Tuning: Standard

Rhythm Guitar:

e|-----------------------------------------------------------------------------|
B|-----------------------------------------------------------------------------|
G|-----------------------------------------------------------------------------|
D|----11---11---11--------10---10---10--------8---8---8---8---8---8---8--------|
A|-----------------------------------------------------------------------------|
E|--13---13---13---13---11---11---11---11---9---9---9---9---9---9---9---9------|

Lead Guitar:

e|-------------------------------------------------------------------------------|
B|---4/6-----6/9-----6\4---2-----------------------------------------------------|
G|-------------------------------------------------------------------------------|
D|-------------------------------------------------------------------------------|
A|-------------------------------------------------------------------------------|
E|-------------------------------------------------------------------------------|


************************************

| /   slide up
| \   slide down
| h   hammer-on
| p   pull-off
| ~   vibrato
| +   harmonic
| x   Mute note
| b   Bend
| pb  Pre-bend
| br  Bend release
| pbr Pre-bend release
| brb Bend release bend

************************************
Suggest correction
comments
print report bad tab
2 comments total.
0 reply
araçaboi 155 Sep 16, 2012 06:59 AM

For the lead guitar, it should be on the G string.

e|-----------------------------------------------------------------------------|
B|-----------------------------------------------------------------------------|
G|---8/10-----10/13-----10\8---6-----------------------------------------------|
D|-----------------------------------------------------------------------------|
A|-----------------------------------------------------------------------------|
E|-----------------------------------------------------------------------------|

Other than that, accurate tab!

0 reply
tyler_j 1,519 Apr 14, 2013 10:21 AM

You have to be kidding me...

guest
You may want to rate the tab now too:
select rating
Wanna post a correction for this tab? Suggest correction