Oops, an error
Loading. Please wait.

I Said Im Sorry Tab

version 1
version 1

Whole song

8,548 views 1 this week
2 commentsread comments
1 2 3 4 5
accurate
x 3
add to favorites
launch autoscroll
font size
0
reset
how to read this tab
guitar tuner
Autoscroll
slow
fast
+/-
esc
set tempo
stop
Help us to improve Ultimate-Guitar.com Take our survey!
×
Author
-------------------------------------------------------------------------------
                         'I said I'm sorry,' British India
-------------------------------------------------------------------------------
Tabbed by:dez15
Email:vo_debra@hotmail.com

Tuning:Standard


Verses 
e|----4----------0-----------------------------------------------------------|
B|----5----------0-----------------------------------------------------------|
G|----6----------2-----------------------------------------------------------|
D|----6----------2-----------------------------------------------------------|
A|----4----------0-----------------------------------------------------------|
E|---------------------------------------------------------------------------|


Chorus 
e|---4-----------0-----------------------------------------------------------|
B|---5-----------0-----------------------------------------------------------|
G|---6-----------2-----------------------------------------------------------|
D|---6-----------2------x4---------------------------------------------------|
A|---4-----------0-----------------------------------------------------------|
E|---------------------------------------------------------------------------|


e|---------------------------------------------------------------------------|
B|---7------5------7------5-------7------------------------------------------|
G|---8------6------8------6-------8------------------------------------------|
D|---9------7------9------7-------9------------------------------------------|
A|---9------7------9------7-------9------------------------------------------|
E|---7------5------7------5-------7------------------------------------------|


Solo 
e|---4--------0--------4--------0--------------------------------------------|
B|---5--------0--------5--------0--------------------------------------------|
G|---6--------2--------6--------2--------------------------------------------|
D|---6--------2--------6--------2--------------------------------------------|
A|---4--------0--------4--------0--------------------------------------------|
E|---------------------------------------------------------------------------|


Order:

Verse (0.00-1.15)
Chorus (1.15-2.00)
Solo (2.00-2.19)
Verse (2.19-2.49)
Chorus (2.49-3.28)



| /  slide up
| \  slide down
| h  hammer-on
| p  pull-off
| ~  vibrato
| +  harmonic
| x  Mute note
===============================================================================
Suggest correction
Give kudos to tab author, rate the tab!
1 2 3 4 5
comments
print report bad tab
2 comments total.
0 reply
gyrojones 92 wrote on July 27 2008, 01:57 am

I been trying to figure this out aswell, those are bassically the chords i had aswell.
I thought the first bit of the intro riff was something starting a bit like this:

e----0---0-| or it strums through that C#m chord
b----0h5-5-| and then moves to the A chord and strums through that
g--6-6-----| I'm not sure of it exactly
d--6-------|
a--4-------|
e----------|

Cheers for the tab good effort pretty accurate power chords

0 reply
Jedrik 10 wrote on January 19 2009, 09:14 pm

I think the into goes like this

Intro
E---------------------0-0-0--------------------|
B----5-5--5--5--5-----0-0-0--------------------|
G-----6--6--6----6----2-2-2---4-2---4-2---4----|
D---------------------2-2-2-2-----2-----2------|
A--4----4--4---4---0--0-0-0--------------------|
E---------------------0-0-0--------------------|

guest
You may want to rate the tab now too:
select rating
Wanna post a correction for this tab? Suggest correction