Oops, an error
Loading. Please wait.

March Into The Ocean Tab

780 views 1 this week
no commentswrite comment
1 2 3 4 5
please rate
add to favorites
launch autoscroll
font size
0
reset
how to read this tab
guitar tuner
Tab Pro tools
  • play this tab
  • loop segment
  • change instrument
  • show fretboard
  • metronome
×
Best way to learn
"March Into The Ocean"
Autoscroll
slow
fast
+/-
esc
set tempo
stop
Contributor
Tuning
D# G# C# F# A# D#
This is the recently released British India song from their upcoming fourth album,
the tuning is a half step down.

Intro: Guitar 1
e---------------------------------------|
B---------------------------------------|
G-------------9---9------------9999-----|
D----5---5---9---9-------5555--9999-----|
A---5---5---7---7----x4--5555--7777--x2-|
E--3---3-----------------3333--0000-----|

Guitar 2
e---------------------------------------------------------|
B--------12-----------12-----------12---------------------|
G-----12----12-----12----12-----12----12----12--14--12----|
D--12-----------12-----------12----------12---------------|
A---------------------------------------------------------|x4
E---------------------------------------------------------|

Then both guitars
e----------------------------------------------------|
B--121212121212131313131313121212121212101010101010--|
G--0-0-0-0-0-0-0-0-0-0-0-0-0-0-0-0-0-0-0-0-0-0-0-0---|
D--0-0-0-0-0-0-0-0-0-0-0-0-0-0-0-0-0-0-0-0-0-0-0-0---|
A----------------------------------------------------|
E----------------------------------------------------|

e-------------------------------------------------------|
B--121212121212131313131313-----------------------------|
G--0-0-0-0-0-0-0-0-0-0-0-0--9-9-9-9-9-9--111111111111---|
D--0-0-0-0-0-0-0-0-0-0-0-0--101010101010-121212121212---|
A---------------------------101010101010-121212121212---|
E---------------------------8-8-8-8-8-8--101010101010---|

Verse:
e---------------------------------------|
B---------------------------------------|
G----------------9--------55555-77777---|
D--5---5-5---9-9---9------55555-77777---|
A--5-5---5---7-7---7--x3--33333-55555---|
E--3-3---3---0-----0--------------------|

e--------------------------------------------|
B--------------------------------------------|
G--000000000000000000000000-0-0-0-0-0-0-0-0--|
D--5555555577777777999999991010101010101010--|
A--------------------------------------------|
E--------------------------------------------|

e-------------------------------------------------------------|
B--88888888101010101010101012121212121212121313131313131313---|
G--00000000-0-0-0-0-0-0-0-0-0-0-0-0-0-0-0-0-0-0-0-0-0-0-0-0---|
D-------------------------------------------------------------|
A-------------------------------------------------------------|
E-------------------------------------------------------------|

Chorus:
e----------------------------------------------------|
B--121212121212131313131313121212121212101010101010--|
G--0-0-0-0-0-0-0-0-0-0-0-0-0-0-0-0-0-0-0-0-0-0-0-0---|
D--0-0-0-0-0-0-0-0-0-0-0-0-0-0-0-0-0-0-0-0-0-0-0-0---|
A----------------------------------------------------|
E----------------------------------------------------|

e-------------------------------------------------------|
B--121212121212131313131313-----------------------------|
G--0-0-0-0-0-0-0-0-0-0-0-0--9-9-9-9-9-9--111111111111---|
D--0-0-0-0-0-0-0-0-0-0-0-0--101010101010-121212121212---|
A---------------------------101010101010-121212121212---|
E---------------------------8-8-8-8-8-8--101010101010---|

Before the second verse:
e----------------------------------------------|
B----------------------------------------------|
G------0----------0----------0----------9------|
D--5---5-5----9-9-9-9----5---5-5----9-9-9-9----|
A--5-5---5-5--7-7---7-7--5-5---5-5--7-7---7-7--|
E--3-3-----3--0-------0--3-3-----3--0-------0--|

Second verse:
e--------------------------------------------------------|
B-------12-12---------8-8------------12-12----------8-8--|
G--------------------------------------------------------|
D-12-12------12\9-9-9-----9/12-12-12-------12\9-9-9------|
A--------------------------------------------------------|
E--------------------------------------------------------|

e---------------------------------------------------------------|
B------------12-12-----------8-8------------8-8------------7-7--|
G---------------------------------------------------------------|
D-9/12-12-12-------12\9-9-9-----9/10-10-10-------10\7-7-7-------|
A---------------------------------------------------------------|
E---------------------------------------------------------------|

e--------------------------------------------|
B--------------------------------------------|
G--000000000000000000000000-0-0-0-0-0-0-0-0--|
D--5555555577777777999999991010101010101010--|
A--------------------------------------------|
E--------------------------------------------|

e-------------------------------------------------------------|
B--88888888101010101010101012121212121212121313131313131313---|
G--00000000-0-0-0-0-0-0-0-0-0-0-0-0-0-0-0-0-0-0-0-0-0-0-0-0---|
D-------------------------------------------------------------|
A-------------------------------------------------------------|
E-------------------------------------------------------------|

Chorus:
e----------------------------------------------------|
B--121212121212131313131313121212121212101010101010--|
G--0-0-0-0-0-0-0-0-0-0-0-0-0-0-0-0-0-0-0-0-0-0-0-0---|
D--0-0-0-0-0-0-0-0-0-0-0-0-0-0-0-0-0-0-0-0-0-0-0-0---|
A----------------------------------------------------|
E----------------------------------------------------|

e-------------------------------------------------------|
B--121212121212131313131313-----------------------------|
G--0-0-0-0-0-0-0-0-0-0-0-0--9-9-9-9-9-9--111111111111---|
D--0-0-0-0-0-0-0-0-0-0-0-0--101010101010-121212121212---|
A---------------------------101010101010-121212121212---|
E---------------------------8-8-8-8-8-8--101010101010---|

Aaaaah-Ooooooh bit: Guitar 1
e--------------------------------------------------------|
B-------12-12---------8-8------------12-12----------8-8--|
G--------------------------------------------------------|
D-12-12------12\9-9-9-----9/12-12-12-------12\9-9-9------|
A--------------------------------------------------------|
E--------------------------------------------------------|

e---------------------------------------------------------------|
B------------12-12-----------8-8------------8-8------------7-7--|
G---------------------------------------------------------------|
D-9/12-12-12-------12\9-9-9-----9/10-10-10-------10\7-7-7-------|
A---------------------------------------------------------------|
E---------------------------------------------------------------|

Guitar 2
e-----------------------------------------------|
B--12---8------12---8------12---8------5---3----|
G--14b--10b----14b--10b----14b--10b----7b--5b---|
D-----------------------------------------------|
A-----------------------------------------------|
E-----------------------------------------------|

Last verse:
e-------------------------------------------------|
B-------------------------------------------------|
G-0~~~--000000000000000000000000-0-0-0-0-0-0-0-0--|
D-5~~~--5555555577777777999999991010101010101010--|
A-5-----------------------------------------------|
E-3-----------------------------------------------|

e-------------------------------------------------------------|
B--88888888101010101010101012121212121212121313131313131313---|
G--00000000-0-0-0-0-0-0-0-0-0-0-0-0-0-0-0-0-0-0-0-0-0-0-0-0---|
D-------------------------------------------------------------|
A-------------------------------------------------------------|
E-------------------------------------------------------------|

Chorus:
e----------------------------------------------------|
B--121212121212131313131313121212121212101010101010--|
G--0-0-0-0-0-0-0-0-0-0-0-0-0-0-0-0-0-0-0-0-0-0-0-0---|
D--0-0-0-0-0-0-0-0-0-0-0-0-0-0-0-0-0-0-0-0-0-0-0-0---|
A----------------------------------------------------|
E----------------------------------------------------|

e-------------------------------------------------------|
B--121212121212131313131313-----------------------------|
G--0-0-0-0-0-0-0-0-0-0-0-0--9-9-9-9-9-9--111111111111---|
D--0-0-0-0-0-0-0-0-0-0-0-0--101010101010-121212121212---|
A---------------------------101010101010-121212121212---|
E---------------------------8-8-8-8-8-8--101010101010---|

Outroduction: Guitar 1
e--------------------------------------------------------|
B-------12-12---------8-8------------12-12----------8-8--|
G--------------------------------------------------------|
D-12-12------12\9-9-9-----9/12-12-12-------12\9-9-9------|
A--------------------------------------------------------|
E--------------------------------------------------------|

e---------------------------------------------------------------|
B------------12-12-----------8-8------------8-8------------7-7--|
G---------------------------------------------------------------|
D-9/12-12-12-------12\9-9-9-----9/10-10-10-------10\7-7-7-------|
A---------------------------------------------------------------|
E---------------------------------------------------------------|

Guitar 2
e-----------------------------------------------|
B--12---8------12---8------12---8------5---3----|
G--14b--10b----14b--10b----14b--10b----7b--5b---|
D-----------------------------------------------|
A-----------------------------------------------|
E-----------------------------------------------|

End on:
e---------|
B---------|
G-0~~~----|
D-5~~~----|
A-5~~~----|
E-3~~~----|
comments
We did not receive enough feedback on this tab! Please rate:
print report bad tab
1 2 3 4 5
I want to post or [tab]
guest
You may want to rate the tab now too:
select rating
Please do not post tabs as comments. Select "correction" instead!