Oops, an error
Loading. Please wait.

Outside 109 Tab

434 views 1 this week
no commentswrite comment
1 2 3 4 5
accurate
x 1
add to favorites
launch autoscroll
font size
0
reset
how to read this tab
guitar tuner
Tab Pro tools
  • play this tab
  • loop segment
  • change instrument
  • show fretboard
  • metronome
Autoscroll
slow
fast
+/-
esc
set tempo
stop
Contributor
Difficulty
Tuning
novice
D A D G B E
)Intro
e|---------------------------------------|
B|---------------------------------------|
G|--9999977-9999977-99999777-------------|
D|--9999977-9999977-99999777-5-55-7-77---|x4
A|--7777777-7777777-77777777-5-55-7-77---|
D|---------------------------5-55-7-77---|

Verse 1 [0:24]
e|------------------------------------------------------|
B|------------------------------------------------------|
G|--9~--------------------------------------------------|
D|--9~---------------------------------555-----7---777--|
A|--7~---------------------------------555-----7---777--|
D|-------------------------------------555-----7---777--|
   "And when you're all alone..."  "...I don't need you"

                                                 /      x3        \ 
e|----------------------------------------------|-----------------|--------|
B|----------------------------------------------|-----------------|--------|
G|--9~----------------------9999999999999999----|-----------------|-7~-----|
D|--9~----------------------9999999999999999----|--555-7----777---|-7~-----|
A|--7~----------------------7777777777777777----|--555-7----777---|-9~-----|
D|----------------------------------------------|--555-7----777---|--------|
   "So get behind me..."   "You'll be the only"   "hey yeah yeah"  "Yeah!"

Fill [0:39]
e|-------------------|
B|-------------------|
G|-9999977--9999977--|
D|-9999977--9999977--|
A|-7777777--7777777--|
D|-------------------|


Verse 1 again [0:42]

Fill again [0:58]

Pre-Chorus [1:01]
e|--------------------------|
B|--------------------------|
G|-9~--------------9999977--|
D|-9~--------------9999977--|x4
A|-7~--------------7777777--|
D|--------------------------|
  "Outside 109"
  "I'm feeling good, I'm feeling fine"   
  "I sacraficed all my time on you"
  "Outside 109"

Chorus [1:13]
  /              x3             \/   x3   \
e|----------------------------|-----------|-----|
B|----------------------------|-----------|-----|
G|-9-99-9-99------------------|-----------|--9~-|
D|-9-99-9-99-------5-55-7-777-|-5-55-7-77-|--9~-|
A|-7-77-7-79-------5-55-7-777-|-5-55-7-77-|--7--|
D|-----------------5-55-7-777-|-5-55-7-77-|-----|
  "Outside Outside 109          "109!"      "Yeah!"

Intro Riff again (only once) [1:27]

Verse again [1:33]

Fill again [1:50]

Pre Chorus then Chorus [1:53]

Intro Riff [2:20] Interlued/solo start at 2:23 with the intro riff continued underneath

Bridge [2:34]

e|--------------------------|
B|--------------------------|
G|--------------------------|
D|9-9-987-7-7-765-5-55-7-77-|x3
A|9-9-987-7-7-765-5-55-7-77-|
D|9-9-987-7-7-765-5-55-7-77-|


Finish with Chorus again







comments
We did not receive enough feedback on this tab! Please rate:
print report bad tab
1 2 3 4 5
I want to post or [tab]
guest
You may want to rate the tab now too:
select rating
Please do not post tabs as comments. Select "correction" instead!