Oops, an error
Loading. Please wait.

Plastic Souvenirs chords

1,256 views 3 this week
1 commentread comment
1 2 3 4 5
x 3
add to favorites
×
Save as Personal and add changes to this tab that will be seen only by you. Learn more ›
×
You can save this tab as Personal to edit and correct it or add notes. All changes will be seen only by you. Learn more »
launch autoscroll
font size
0
reset
transpose
0
reset
display chords
guitar tuner
edit
Autoscroll
slow
fast
+/-
esc
set tempo
stop
Author
Difficulty
Strumming
There is no strumming pattern for this song yet. and get +5 IQ
-----------------------------------------------------------------
              BRITISH INDIA - Plastic Souvenirs
-----------------------------------------------------------------


Offical Music Video - http://www.youtube.com/watch?v=loByuIXY8tw

Standard Tuning (can also play it in Eb tuning)



(Fill 1 - Repeat as many times as needed)

We hung around our old home town and waited


Got married to a Grecian billionaire
Cm                 Ab       Eb          (Let Ring)
We need to drink a litre of distraction
Cm               Ab      Eb             (Let Ring)
We need to buy a plastic souvenir


(Palm muted)
Fm                                 Eb      (Fill 2)
And when I woke up you were lying with me
Fm                                 Eb      (Fill 2)
Got half a mile for every cigarette


Cm                                      Ab                 Eb
Don't you hang up on me, don't you hang up, don't you hang up on me my friend
Cm                                      Ab                 Eb
Don't you hang up on me, don't you hang up, don't you hang up on me again


Fm                                 Eb
I wrote it down so that I would remember
Fm                                 Eb
That I am you and you are someone else
Cm                  Ab                 Eb
I swear to god one day you're going to miss me
Cm                  Ab                Eb  (Fill 3)
I swear to god that I'll miss you as well


Cm                                      Ab                 Eb
Don't you hang up on me, don't you hang up, don't you hang up on me my friend
Cm                                      Ab                 Eb
Don't you hang up on me, don't you hang up, don't you hang up on me again


Fm                 Ab
Because you might need somebody, need somebody
Eb                                             (Fill 2)
And I'm not gonna be there
Fm                 Ab
Because you might need somebody, need somebody
Eb
And I'm not gonna be there



Fill 1:

e|----------------------------------------|
B|----------------------------------------|
G|-5-5-5-5-5-5-5-5-5-5-5-5-5-5-5-5--------|
D|--8-8-8-8-8-8-8-8-6-6-6-6-6-6-6-6-------|
A|----------------------------------------|
E|----------------------------------------|


Fill 2:

e|----------------------------------------|
B|----------------------------------------|
G|--12-10-10-8---8------------------------|
D|--x--x--x--x---x------------------------|
A|--10-8--8--6---6------------------------|
E|----------------------------------------|


Fill 3:

e|----------------------------------------|
B|----------------------------------------|
G|-12-12-12-13-13-13-15-15-15-17-17-17----|
D|-x--x--x--x--x--x--x--x--x--x--x--x-----|
A|-10-10-10-11-11-11-13-13-13-15-15-15----|
E|----------------------------------------|


*Not sure if Fill 1 is correct - can't tell if it is that or they might be playing 
octaves of G - some assistance would be appreciated.

            
            
Suggest correction
Creating personal tab
Creating personal tab
You can edit any tab online and save it as your Personal.

You can edit, replace or remove any tab part or add personal notes – all changes will be seen only by you.

Personal tabs can be accessed anytime from any device, even offline.
Learn more »
Give kudos to tab author, rate the tab!
1 2 3 4 5
comments
print report bad tab
1 comment total.
0 reply
brettcadamson 2,984 Sep 29, 2015 03:14 AM

Thanks for this mate! Have been using your tab. There's a really low Eb in the intro so my preference would be to bite the bullet and downtune then intro would be:

eb|--------------|
Bb|--------------|
Gb|--1------1----|
Db|-----x8----x8-|
AB|--------------|
Eb|-2------0-----|

guest
You may want to rate the tab now too:
select rating
Wanna post a correction for this tab? Suggest correction