Oops, an error
Loading. Please wait.

Vanilla Tab

version 2
version 2

Whole song

3,800 views 1 this week
1 commentread comment
1 2 3 4 5
excellent!
x 3
add to favorites
launch autoscroll
font size
0
reset
how to read this tab
guitar tuner
Autoscroll
slow
fast
+/-
esc
set tempo
stop
Help us to improve Ultimate-Guitar.com Take our survey!
×
Author
Tuning
D# G# C# F# A# D#
Song: Vanilla
Artist: British India
Album: Avalanche [2010]
by Chris

Tuning is half a step down.

Intro: x4
e--------------------------------------|
B--------------------------------------|
G--------1--------1--------1-----------|
D------2---2----2---2----2---2---------|
A-------------4--------4---------------|
E---0----------------------------------|

Second guitar on third time:
e--------------------------------------|
B----9/10\9---12-10-9/10\9---7\5-------|
G--------------------------------------|
D--------------------------------------|
A--------------------------------------|
E--------------------------------------|

Verse: x8
e--------------------------------------|
B--------------------------------------|
G--------1--------1--------1-----------|
D------2---2----2---2----2---2---------|
A-------------4--------4---------------|
E---0----------------------------------|

Bridge:
e--------------------------------------------------------|
B--------------------------------------------------------|
G--------1--------1--------1---------1-------------------|
D------2---2----2---2----2---2-----2---2----2-----2------|
A-------------4--------4---------0-----------------------|
E---0-------------------------------------4-----2--------|

Second guitar:
e--------------------------------------------------------|
B----9/10\9---9/10\9\7-7\5--7/9--------------------------|
G--------------------------------------------------------|
D--------------------------------------------------------|
A--------------------------------------------------------|
E-----------------------------------------4-----2--------|

Distorted part:
e-00-----------------00-----------------00---------------00-----------------|
B-00-----------------00-----------------00---------------00-----------------|
G-11-----------------11-----------------11---------------11-----------------|
D-22-----------------22-----------------22---------------22-----------------|
A-22/141414141414141422-----------------22---------------22-----------------|
E-00/121212121212121200/141414141616161600/1717171717161600/1717171719191919|

Second guitar:
e-00-----------------00-----------------00---------------00-----------------|
B-00-----------------00-----------------00---------------00-----------------|
G-11-----------------11-----------------11---------------11-----------------|
D-22-----------------22-----------------22---------------22-----------------|
A-22/141414141414141422/141414141414141422/1414141414141422/1414141414141414|
E-00/121212121212121200/121212121212121200/1212121212121200/1212121212121212|

"I'll drop bombs in the valley..." x4
e--0-0-0-0----------------|
B--0-0-0-0----------------|
G--1-1-1-1--6-6-6-6-------|
D--2-2-2-2--6-6-6-6-------|
A--2-2-2-2--4-4-4-4-------|
E--0-0-0-0----------------|

Chorus: x4
e--0-0-0-0-------------------------------|
B--0-0-0-0-------------------------------|
G--1-1-1-1--4-4-4-4--2-2-2-2--4-4-4-4----|
D--2-2-2-2--4-4-4-4--2-2-2-2--4-4-4-4----|
A--2-2-2-2--2-2-2-2--0-0-0-0--2-2-2-2----|
E--0-0-0-0-------------------------------|

Second guitar: x4
e---------------------|
B----17-----14--------|
G----19b----16b-------|
D---------------------|
A---------------------|
E---------------------|

e-00------------------00------------------|
B-00------------------00------------------|
G-11------------------11------------------|
D-22------------------22------------------|
A-22/1414141414141414-22------------------|
E-00/1212121212121212-00/1717171719191919-|

Second guitar:
e-00------------------00------------------|
B-00------------------00------------------|
G-11------------------11------------------|
D-22------------------22------------------|
A-22/1414141414141414-22/1414141414141414-|
E-00/1212121212121212-00/1212121212121212-|

e-------------------------------------------------------------|
B-------------------------------------------------------------|
G--------1--------1--------1---------1--------1-------1h2p1---|
D------2---2----2---2----2---2-----2---2----2---2---2-------2-|
A-------------4--------4---------0----------------------------|
E---0-------------------------------------4-------2-----------|

Second guitar:
e--------------------------------------------------------|
B----9/10\9---9/10\9---9\7---9/10\9\7-7\5----------------|
G--------------------------------------------------------|
D--------------------------------------------------------|
A--------------------------------------------------------|
E--------------------------------------------------------|

Verse: x4
e-------------------------------------------------------------|
B-------------------------------------------------------------|
G--------1--------1--------1---------1--------1-------1h2p1---|
D------2---2----2---2----2---2-----2---2----2---2---2-------2-|
A-------------4--------4---------0----------------------------|
E---0-------------------------------------4-------2-----------|

Bridge:
e-------------------------------------------------------------|
B-------------------------------------------------------------|
G--------1--------1--------1---------1--------1-------1h2p1---|
D------2---2----2---2----2---2-----2---2----2---2---2-------2-|
A-------------4--------4---------0----------------------------|
E---0-------------------------------------4-------2-----------|

Second guitar:
e-----------------------------------------|
B----7/9-9----------------------7/9-9-----|
G-----------------------------------------|
D-----------------------------------------|
A-----------------------------------------|
E-----------------------------------------|

Third guitar, distorted:
e-----------------------------------------------------------|
B-----------------------------------------------------------|
G-----------------------------------------------------------|
D-----------------------------------------------------------|
A-----------------------------------------------------------|
E--12121212-1212-12121212-1212-12121212-1212-12121212-1212--|

Distorted part:
e-00-----------------00-----------------00---------------00-----------------|
B-00-----------------00-----------------00---------------00-----------------|
G-11-----------------11-----------------11---------------11-----------------|
D-22-----------------22-----------------22---------------22-----------------|
A-22/141414141414141422-----------------22---------------22-----------------|
E-00/121212121212121200/141414141616161600/1717171717161600/1717171719191919|

Second guitar:
e-00-----------------00-----------------00---------------00-----------------|
B-00-----------------00-----------------00---------------00-----------------|
G-11-----------------11-----------------11---------------11-----------------|
D-22-----------------22-----------------22---------------22-----------------|
A-22/141414141414141422/141414141414141422/1414141414141422/1414141414141414|
E-00/121212121212121200/121212121212121200/1212121212121200/1212121212121212|

"I'll drop bombs in the valley..." x4
e--0-0-0-0----------------|
B--0-0-0-0----------------|
G--1-1-1-1--6-6-6-6-------|
D--2-2-2-2--6-6-6-6-------|
A--2-2-2-2--4-4-4-4-------|
E--0-0-0-0----------------|

Chorus: x4
e--0-0-0-0-------------------------------|
B--0-0-0-0-------------------------------|
G--1-1-1-1--4-4-4-4--2-2-2-2--4-4-4-4----|
D--2-2-2-2--4-4-4-4--2-2-2-2--4-4-4-4----|
A--2-2-2-2--2-2-2-2--0-0-0-0--2-2-2-2----|
E--0-0-0-0-------------------------------|

Second guitar: x4
e---------------------|
B----17-----14--------|
G----19b----16b-------|
D---------------------|
A---------------------|
E---------------------|

Solo:

Rhythm plays this: x4
e--0-0-0-0-------------------------------|
B--0-0-0-0-------------------------------|
G--1-1-1-1--6-6-6-6--2-2-2-2--4-4-4-4----|
D--2-2-2-2--6-6-6-6--2-2-2-2--4-4-4-4----|
A--2-2-2-2--4-4-4-4--0-0-0-0--2-2-2-2----|
E--0-0-0-0-------------------------------|

Lead:
e------------------------------------------------|
B------------------------------------------------|
G--(18)r16----161616161616161616161616161616-14--|
D------------------------------------------------|
A--(16)r14\12------------------------------------|
E------------------------------------------------|

e--12-------------12-----------------------------|
B--15b----12------15b----12----------------------|
G------16-14b---------16-14b--------(18)r16------|
D------------------------------------------------|
A-------------12--------------12----(16)r14\12---|
E------------------------------------------------|

e------------------------------------------------|
B--0-0-0-0-0-0-0-0--0-0-0-0-0-0-0-0--------------|
G--1111111111111111-1313131313131313-------------|
D------------------------------------------------|
A-------------------------------------12br\11----|
E------------------------------------------------|

e-----------------------------------------22b22b22b22b22b22b22b22b22b22b22b-|
B---------------------------------------------------------------------------|
G---------------------131313131313131313------------------------------------|
D--11-11-11-11--11/14-------------------------------------------------------|
A---------------------------------------------------------------------------|
E---------------------------------------------------------------------------|

Chorus: x4
e--0-0-0-0-------------------------------|
B--0-0-0-0-------------------------------|
G--1-1-1-1--4-4-4-4--2-2-2-2--4-4-4-4----|
D--2-2-2-2--4-4-4-4--2-2-2-2--4-4-4-4----|
A--2-2-2-2--2-2-2-2--0-0-0-0--2-2-2-2----|
E--0-0-0-0-------------------------------|

Second guitar: x4
e---------------------|
B----17-----14--------|
G----19b----16b-------|
D---------------------|
A---------------------|
E---------------------|

Outroduction:
e-00-----------------00-----------------00---------------00-----------------|
B-00-----------------00-----------------00---------------00-----------------|
G-11-----------------11-----------------11---------------11-----------------|
D-22-----------------22-----------------22---------------22-----------------|
A-22/141414141414141422-----------------22---------------22-----------------|
E-00/121212121212121200/141414141616161600/1717171717161600/1717171719191919|

Second guitar:
e-00-----------------00-----------------00---------------00-----------------|
B-00-----------------00-----------------00---------------00-----------------|
G-11-----------------11-----------------11---------------11-----------------|
D-22-----------------22-----------------22---------------22-----------------|
A-22/141414141414141422/141414141414141422/1414141414141422/1414141414141414|
E-00/121212121212121200/121212121212121200/1212121212121200/1212121212121212|

Third guitar: x2
e--17b17b17b17b17b17b17b17br--------------------------------|
B----------------------------17-17-17-17-17-17-17-17--------|
G-----------------------------------------------------------|
D-----------------------------------------------------------|
A-----------------------------------------------------------|
E-----------------------------------------------------------|

End on:
e--0~-----|
B--0~-----|
G--1~-----|
D--2~-----|
A--2~-----|
E--0~-----|
Suggest correction
What's this?
You can suggest a correction to this tab. Community and Mods will review your correction and vote to approve or reject it.
comments
We did not receive enough feedback on this tab! Please rate:
print report bad tab
1 2 3 4 5
1 comment total.
0 reply
Chris24sguitar 105 wrote on July 6 2010, 12:03 am

well done this tab is sweet
definately one of my favourite bands
would be nice to see more tabs of there older stuff =D

guest
You may want to rate the tab now too:
select rating
Please do not post tabs as comments. Select "correction" instead!