Oops, an error
Loading. Please wait.

Fear Of Drowning Tab

859 views 1 this week
no commentswrite comment
1 2 3 4 5
2 more votes to show rating
add to favorites
launch autoscroll
font size
0
reset
how to read this tab
guitar tuner
Autoscroll
slow
fast
+/-
esc
set tempo
stop
Help us to improve Ultimate-Guitar.com Take our survey!
×
Author
Author: Nasher

Intro
---------------------

e|----------0--------------0---------------0---------------0-------|
B|-0-----------0---0----------0---0------------0--0-----------0----|
G|-0---------------0--------------0---------------0----------------|
D|-9~~-------------7~~------------5~~-------------4~~--------------| x2
A|-----------------------------------------------------------------|
E|-----------------------------------------------------------------|

(heavy bit)

e|--------------------------------|
B|--------------------------------|
G|-555--555--55----222--222--22---|
D|-555--555--55----222--222--22---|
A|-333--333--33----000--000--00---|
E|--------------------------------|

"Jesus fucking Christ, Oh God no!"

e|--------------------------------|
B|--------------------------------|
G|--------------------------------|
D|--------------------------------|
A|--------------------------------|
E|-333--333--33----222--222--22---|


Verse (guitar 1)
---------------------

"From the moment that you realize..."

e|-------------------------------------------0---------------0----|
B|---------------------------------0------------0--0------------0-|
G|---------------------------------0---------------0--------------|
D|---------------------------------2---------------0--------------|
A|---------------------------------2------------------------------|
E|-3~--------------2~--------------0---------------2--------------|


Verse (guitar 2)
---------------------

(on second time, tremelo pick these notes)

"And we'll swim from these island shores..."

e|-15--------------14--------------12-------------|
B|------12-12-----------12-12-----------12-12-----|
G|------------------------------------------------|
D|------------------------------------------------|
A|------------------------------------------------|
E|------------------------------------------------|

Pre-chorus
---------------------

"A little fear of drowning..."


e|-------------------------------------------------------------|
B|-------------------------------------------------------------|
G|-------------------------------------------------------------|
D|-0000-0000-4444-7777-2222-4444-5555-7777-4444-5555-7777-9999-|
A|-------------------------------------------------------------|
E|-------------------------------------------------------------|


Chorus 
---------------------

"Oh little England, tonight I'll swim..."

e|-------------------------------------------0-----------------------------------|
B|-0---------------0---------------0------------0--------------------------------|
G|-0---------------0---------------0---------------777777777--55555555--22222222-|
D|-0---------------0---------------2---------------777777777--55555555--22222222-|
A|---------------------------------2---------------555555555--33333333--00000000-|
E|-3~--------------2~--------------0~--------------------------------------------|


Solo
---------------------

Play around with the Gmajor scale
Suggest correction
Give kudos to tab author, rate the tab!
1 2 3 4 5
comments
print report bad tab
guest
You may want to rate the tab now too:
select rating
Wanna post a correction for this tab? Suggest correction