Oops, an error
Loading. Please wait.

Hit Me Baby One More Time bass

version 1
version 1

Whole song

Interactive

5,711 views 18 this week
no commentswrite comment
1 2 3 4 5
2 more votes to show rating
add to favorites
×
Save as Personal and add changes to this tab that will be seen only by you. Learn more ›
×
You can save this tab as Personal to edit and correct it or add notes. All changes will be seen only by you. Learn more »
launch autoscroll
font size
0
reset
guitar tuner
edit
Autoscroll
slow
fast
+/-
esc
set tempo
stop
Song: Hit Me Baby One More Time
Artist: Britney Spears
Album: …Baby One More Time
Tuning: Drop C (CGCF)

I put the piano part in for timing references; they are optional in playing (I believe).

(This doesn’t have to be in Drop C to play, it’s just how I tabbed it(it’s easier and 
the sounds fuller with the low c). for standard just play the Breakdown slide an octave 
higher, and shift everything else down a step, with the low C down two steps.)

After Piano Intro
Verse I
|---7-------------------------------10----------------------------|
|-------------------------------------------------5------57-------|
|-5------55-------4------40---7---8------88-----------------3-5-5-|
|-----------------------------------------------------------------|

|---7-------------------------------10----------------------------|
|-------------------------------------------------5------57-------|
|-5------55-------4------40---7---8------88-----------------3-5-5-|
|-----------------------------------------------------------------|

|---7-------------------------------10----------------------------|
|-----------------------------------------------------------------|
|-5------55-------4------40---7---8------88-----------------3-5-5-|
|-------------------------------------------------5-----5-7-------|


Chorus I
|---7-------------------------------10----------------------------|
|-----------------------------------------------------------------|
|-5------55-------4------40---7---8------88-----------------------|
|-------------------------------------------------5------57---7---|

|---7-------------------------------10----------------------------|
|-----------------------------------------------------------------|
|-5------55-------4------40---7---8------88-----------------3-5-5-|
|-------------------------------------------------5-----5-7-------|


Verse II
|-----------------------------------10----------------------------|
|-----------------------------------------------------------------|
|-----------------4------40---7---8------88-----------------3-5-5-|
|-------------------------------------------------5------57-------|

|---7-------------------------------10----------------------------|
|-----------------------------------------------------------------|
|-5------55-------4------40---7---8------88-----------------3-5-5-|
|-------------------------------------------------5-----5-7-------|

|---7-------------------------------10----------------------------|
|-----------------------------------------------------------------|
|-5------55-------4------40---7---8------88-----------------3-5-5-|
|-------------------------------------------------5-----5-7-------|


Chorus II
|---7-------------------------------10----------------------------|
|-----------------------------------------------------------------|
|-5------55-------4------40---7---8------88-----------------------|
|-------------------------------------------------5------57---7---|

|---7-------------------------------10----------------------------|
|-----------------------------------------------------------------|
|-5------55-------4------40---7---8------88-----------------------|
|-------------------------------------------------5\--------------|


Breakdown
|-----------------------------------------------------------------|
|-----------------------------------------------------------------|
|---------------------------3-5-5---------------------------3-5-5-|
|-0///12\\0///12--0///12\\0-------0///12\\0///12--0///12\\0-------|


Bridge
First time through silent

2nd time (just before slide up and down an octave)
|---7-------------------------------10----------------------------|
|-----------------------------------------------------------------|
|-5------55-------4------40---7---8------88-----------------------|
|-------------------------------------------------5------57---7---|

|-----------------------------------------------------------------|
|-----------------------------------------------------------------|
|-1-------1-------13-----3----3-3-1------11---------------3---4---|
|---------------------------------------------7---5---------------|

Followed up Chorus I
And then Chorus II

And yer done.

            
            
Suggest correction
Creating personal tab
Creating personal tab
You can edit any tab online and save it as your Personal.

You can edit, replace or remove any tab part or add personal notes – all changes will be seen only by you.

Personal tabs can be accessed anytime from any device, even offline.
Learn more »
Give kudos to tab author, rate the tab!
1 2 3 4 5
comments
print report bad tab
guest
You may want to rate the tab now too:
select rating
Wanna post a correction for this tab? Suggest correction