Oops, an error
Loading. Please wait.

Hair Of The Dog Bass Tab

version 1
version 1

Whole song

Interactive

394 views 1 this week
no commentswrite comment
1 2 3 4 5
please rate
add to favorites
launch autoscroll
font size
0
reset
guitar tuner
Autoscroll
slow
fast
+/-
esc
set tempo
stop
Help us to improve Ultimate-Guitar.com Take our survey!
×
Difficulty
novice
This is a great Nazereth song that Britny Fox covered way before Guns N' Roses did.
a pretty accurate guitar tab up for it but if you're in a band and want to do the bass too
it is.

Play this line 8 times

G|----------------------|
D|-------------5--------|
A|---------2-7---7-5-7--|
E|-0-0-3-4--------------|

Key change - does this 2 times
(Note: If you're doing the Britny Fox version of this tune the bassist usually sings the
of this next part in a life situation so if you don't wanna play it just let your
work)

G|-------------5--------|
D|---------2-7---7-5-7--|
A|-0-0-3-4--------------|
E|----------------------|

Back to this one twice
G|----------------------|
D|-------------5--------|
A|---------2-7---7-5-7--|
E|-0-0-3-4--------------|


The chorus is as below

G|--------------------|
D|--------------------|
A|-----------5-5-7-7--|
E|-0--3-5-0-----------|

(Note 2: Once again when I saw them live Britny Fox had the bass player sing the chorus
the singer just screamed his line out, if you wanna do it like this it's hard to keep
bass line together and if I remember right he was playing what I've tabbed below instead 
the way you hear it on the record (above)

G|------------------|
D|------------------|
A|-7-7-7-7-7-7-7-7--|
E|------------------|


During the guitar break play...

G|-----------|-----------|------------|-----------|
D|-----------|-----------|------------|-----------|
A|-----------|-----------|------------|----5-3-2--|
E|-0--3-3-5-5|-0---------|-0--3-3-5-5-|-0---------|

The chorus that fades the song out is played as i tabbed it below, regardless of if
playing and singing or not.

G|------------------|
D|------------------|
A|-7-7-7-7-7-7-7-7--|
E|------------------|

So that's the whole thing and will enable you to pull it off in a live situation just as
did. Thanks, Steve.
Suggest correction
Give kudos to tab author, rate the tab!
1 2 3 4 5
comments
print report bad tab
guest
You may want to rate the tab now too:
select rating
Wanna post a correction for this tab? Suggest correction