Oops, an error
Loading. Please wait.

Hair Of The Dog Tab

version 1
version 1

Whole song

Interactive

1,495 views 1 this week
2 commentsread comments
1 2 3 4 5
x 3
add to favorites
launch autoscroll
font size
0
reset
how to read this tab
guitar tuner
×
Best way to learn
"Hair Of The Dog"
Autoscroll
slow
fast
+/-
esc
set tempo
stop
Author/Artist: Britny Fox
Title: Hair of the Dog (1989)
Album: Boys In Heat
Transcribed by: Scott Schaefer

This is a really cool song that has a powerful main riff written in the key of G
                                                                         (one sharp in the key signature).

e|----------|-----------------|---------|
B|----------|-----------------|---------|
G|----------|-----------------|---------|
D|----------|-----------------|---------|
A|-3x-----4x|-----------------|---------|
E|----------|-0x--------------|-12\-----|
   Heavy Palm mute------       slide    

 [Riff 1]
e|-------------------------------||-------------------|
B|-------------------------------||-------------------|
G|-------------------------------||-------------------|
D|-2----------------------------2||--4/5---2----0----2| Repeat [Riff 1] 3 times--| 
A|-2-----------------------2-----||-------------------|
E|-0--------0----3----4----------||-------------------|
                                     [End Riff 1]

 [Riff 2 Below]
e|------------------------|------------------------|------------------------|---|
B|------------------------|------------------------|------------------------|---|
G|-2---------------------2|---------4/5---2---0---2|--2--------------------2|---|
D|-2-----------------2----|------------------------|--2----------------2---2|---|
A|-0-----0---3---4--------|------------------------|--0--------3---4--------|---|
E|------------------------|------------------------|------------------------|---|
 Red   hot   ma-ma         vel-vet      charm-er     time's come to pay your

e|------------------------|-----------------------------------------------------|
B|------------------------|-----------------------------------------------------|
G|-2---2--4/-----2---0----|-----------------------------------------------------|
D|-2---2-----------------2|-----------------------------------------------------|
A|------------------------|-----------------------------------------------------|
E|------------------------|-----------------------------------------------------|
 dues                     

 [Riff 1]
e|-------------------------------||-------------------|
B|-------------------------------||-------------------|
G|-------------------------------||-------------------|
D|-2----------------------------2||--4/5---2----0----2|
A|-2-----------------------2-----||-------------------|
E|-0--------0----3----4----------||-------------------|
                                     [End Riff 1]

[Chorus riff]
e|--------------------------|-----------------|---------------------------|-----|
B|-7-----------------3/5----|-----------------|-7-------------------------|-----|
G|-7-----------------3/5----|-----------------|-7-------------------------|-----|
D|-7-----------------3/5----|-----------------|-7-------------------------|-----|
A|-5-----------------1/3----|-----------------|-5-------------------------|-----|
E|--------------------------|-----------------|---------------------------|-----|
 Now you're messin' with a (a son of a bitch) Now you're messin' with a

e|---------------|-------------------------|------------------------------------|
B|-3--3--5--5----|-------------------------|------------------------------------|
G|-3--3--5--5----|-------------------------|------------------------------------|
D|-3--3--5--5----|-------------------------|------------------------------------| Repeat [Chorus Riff] once
A|-1--1--3--3----|-------------------------|------------------------------------|
E|---------------|-------------------------|------------------------------------|
 son of a bitch.  

e|---------------------|-------------------------|------------------------------|
B|---------------------|-------------------------|------------------------------|
G|--9----9----9----9---|-9---7----------------7--|------------------------------|
D|---------------------|---------9--7--5--9------|------------------------------|
A|---------------------|-------------------------|------------------------------|
E|---------------------|-------------------------|------------------------------|

[SOLO] (with talk box) with chorus Riff (repeat)

************************************

| x  Dead note
| \  Slide down
| /  Slide up

************************************
Suggest correction
Give kudos to tab author, rate the tab!
1 2 3 4 5
comments
print report bad tab
2 comments total.
0 reply
wangmaster 343 Jul 27, 2006 12:07 PM

this song is by Nazareth and/or GnR

0 reply
Tenkuu 20 May 16, 2008 08:04 PM

LOVE IT LOVE IT

guest
You may want to rate the tab now too:
select rating
Wanna post a correction for this tab? Suggest correction