Oops, an error
Loading. Please wait.

Headphones Tab

3,139 views 3 this week
3 commentsread comments
1 2 3 4 5
accurate
x 4
add to favorites
launch autoscroll
font size
0
reset
how to read this tab
guitar tuner
Tab Pro tools
  • play this tab
  • loop segment
  • change instrument
  • show fretboard
  • metronome
×
Best way to learn
"Headphones"
Autoscroll
slow
fast
+/-
esc
set tempo
stop
Contributor
Difficulty
Capo
novice
3rd fret
This is like my favorite song ever!! I love Britt Nicole, she is so Awesome!!

Note: The tabbed part is mine but the chords belong to maykalakugul, (the link to her 
tab is at the bottom) their hers NOT mine, but they're exactly right so I put them on here.


Capo On 3

Intro/First Verse

E-------------------------------------------------------------------------|
B------1------5------3------0---------------------------------------------|
G----2------5------4------0-----------------------------------------------|
D--2------5------5------2-------------------------------------------------|
A-------------------------------------------------------------------------|
E-------------------------------------------------------------------------|


E-----------------------------0-------------------------------------------|
B------1------5------3------0---0-----------------------------------------|
G----2------5------4------0-------0---------------------------------------|
D--2------5------5------2-----------2-------------------------------------|
A-------------------------------------------------------------------------|
E-------------------------------------------------------------------------|


E--------------------------------------------------------------------------|x2
B------1------5------3------0----------------------------------------------|
G----2------5------4------0------------------------------------------------|
D--2------5------5------2--------------------------------------------------|
A--------------------------------------------------------------------------|
E--------------------------------------------------------------------------|

She gave it her best
She tried to fit in
She tried to be cool
But she never could win
Her mom says she's great
The kids think she's weird
Honestly she wish she could disappear
Why you try, try to be like the rest of them
When you know there's so much more within
there's only one you
Here's what ya' gotta do
Whoa, whoa...

 C                          G
Anytime you feel alone, put on your headphones
Am                      F
  Love, love's coming through your headphones
 C                          G
Anytime you feel alone, put on your headphones
Am                      F
  Love, love's coming through your headphones
C   G  Am     F
L-o-o-ove is coming through your headphones


Am                C
  He gets in his car
            G
He falls apart
               F
It came to an end
                            Am
And now it's breaking his heart
                 C
He wants to give up
              G
Wants to try again
                     F
Honestly he doesn't know what he's feeling

Am                  C                G
Hey, you might not see it with your eyes
               F             Am
But keep your head up to the sky
                         C
The sun is coming through
                        G
Here's what you gotta do
       F
Whoa, whoa...

 C                          G
Anytime you feel alone, put on your headphones
Am                      F
  Love, love's coming through your headphones
 C                          G
Anytime you feel alone, put on your headphones
Am                      F
  Love, love's coming through your headphones
C   G  Am     F
L-o-o-ove is coming through your headphones
C   G  Am     F
L-o-o-ove is coming through your headphones

              C
So keep your head up high and
  G
dust off your shoulders
Am            F
it's alright, no, it's not over
 C            G                 Am
Love is here, it came to dry up all your tears
F
Oh, can you feel it
C                  G
  Gotta believe it, gotta see it
Am                   F
By your side in the middle of the night
              C
So keep your head up high and
  G
dust off your shoulders
Am            F
it's alright, no, it's not over

 C                          G
Anytime you feel alone, put on your headphones
Am                      F
  Love, love's coming through your headphones
 C                          G
Anytime you feel alone, put on your headphones
Am                      F
  Love, love's coming through your headphones
C   G  Am     F
L-o-o-ove is coming through your headphones
C   G  Am     F
L-o-o-ove is coming through your headphones

  C               G
Twinkle, twinkle in your eye
Am              F
Listen to this lullaby
    C              G
The sun is shining in the sky
       Am                F
I see love it's in your eyes

C                                G
  This aint' the first time you felt like this
Am
  This ain't the first time,
F
  this ain't the first time
C                                  G
  This ain't the last time you'll feel like this
Am                  F
  But it'll be fine
                   C
If you can just, smile

Please Comment And Rate! thanks i<3brittnicole

http://tabs.ultimate-guitar.com/b/britt_nicole/headphones_crd_1006657id_26112010date.htm
comments
print report bad tab
3 comments total.
0 reply
i<3brittnicole wrote on February 18 2012, 01:09 am

Hey you guys can also check out my "How We Roll" tab from britt nicole as well! And please rate and comment on them both! It's my first 2 tabs and i would really appreciate it!! Thanks Ya'll (yeah i live in oklahoma:)

+1 reply
Zayr wrote on May 25 2012, 05:17 am

This is nice, I just have a hard time playing the tab

+1 reply
i<3brittnicole wrote on July 21 2012, 03:59 pm

thanks zayr :) if you make the cord shapes of Am, A, F9 and just slide them to the correct fret positions, the tab is alot easier.

I want to post or [tab]
guest
You may want to rate the tab now too:
select rating
Please do not post tabs as comments. Select "correction" instead!