Oops, an error
Loading. Please wait.

Set The World On Fire Tab

version 1
version 1

Whole song

47,588 views 3 this week
3 commentsread comments
1 2 3 4 5
x 3
add to favorites
launch autoscroll
font size
0
reset
how to read this tab
guitar tuner
Autoscroll
slow
fast
+/-
esc
set tempo
stop
Help us to improve Ultimate-Guitar.com Take our survey!
×
Author
Difficulty
Capo
novice
4th fret
Standard tuning.
Capo on 4th Fret.

Intro/Verse

-------------------------------------------------|
--------3----------3----------3----------3-------|
------0---0------0---0------0---0------0---0-----|
-------------------------2----------0------------|
--------------3----------------------------------|
---3---------------------------------------------|


Chorus

( ) = hammer on

    G       D     C     C
----3-------2(3)--3-----3------|
----3-------3-----3-----3------|
----0-------2-----0-----0------|
----0-------0-----2-----0------|
----2-------0-----3-----3------|
----3--------------------------|


INTRO/VERSE

I wanna set the world on fire
Until it’s burning bright for You
It’s everything that I desire
Can I be the one You use?
---------------
I, I am small but
You, You are big enough
I, I am weak but
You, You are strong enough to
--------------------------
G          D
Take my dreams
C
Come and give them wings
G         D
Lord with You
C
There’s nothing I can not do
----------------------------
INTRO/VERSE

Nothing I cannot do

I wanna feed the hungry children
And reach across the farthest land
And tell the broken there is healing
And mercy in the Father’s hands
------------------------------
I, I am small but
You, You are big enough
I, I am weak but
You, You are strong enough to
---------------------------
G          D
Take my dreams
C
Come and give them wings
G         D
Lord with You
C
There’s nothing I can not do           X2
------------------------------
Em       C
My hands my feet
G         D
My everything
Em        C
My life, my love
G         D
Lord, use me
--------------------------
INTRO/VERSE

I wanna set the world on fire
I wanna set the world on fire, yeah
-----------------------------------
G          D
Take my dreams
C
Come and give them wings
G         D
Lord with You
C
There’s nothing I can not do          X2
--------------------------------
INTRO/VERSE

Nothing I can not do,

I’m gonna set the world on fire
Set the world on fire


http://www.brittnicole.com/
Suggest correction
Give kudos to tab author, rate the tab!
1 2 3 4 5
comments
print report bad tab
3 comments total.
0 reply
JoannaM 10 Jan 24, 2008 05:55 AM

Intro/verse isn't quite right.. I think this is
it.

-------------------------------------------------|
----------3----------3--------3----------3-------|
--------0
----------0--------0---0------0---0-----|
------0----------2-------2----------0------------|
--------------3----------
------------------------|
---3---------------------------------------------|

+2 reply
JoannaM 10 Jan 24, 2008 05:57 AM

Didn't work :S
------------------------------------------------|
----------3----------3--------3----------3------|
--------0----------0--------0---0------0---0----|
------0----------2-------2----------0-----------|
--------------3---------------------------------|
---3--------------------------------------------|

You get the picture..

0 reply
dukeymeister7 10 Jul 20, 2008 07:55 PM

very bad

guest
You may want to rate the tab now too:
select rating
Wanna post a correction for this tab? Suggest correction