Oops, an error
Loading. Please wait.

When You Leave tab

16 views 1 this week
no commentswrite comment
1 2 3 4 5
3 more votes to show rating
add to favorites
×
Save as Personal and add changes to this tab that will be seen only by you. Learn more ›
×
You can save this tab as Personal to edit and correct it or add notes. All changes will be seen only by you. Learn more »
launch autoscroll
font size
0
reset
how to read this tab
guitar tuner
edit
Autoscroll
slow
fast
+/-
esc
set tempo
stop
Author
Difficulty
Unregistered
[Intro]

e|--------1----------1-----------|
B|-------------------------------|
G|-----3---------3---------------|      x 2
D|--1--------1-------------------|
A|-------------------------------|
E|-------------------------------|


[Verse]

e|------1-----1----1-----1-----------|
B|-----------------------------------|
G|----3-----3----3-----3-------------|
D|--1--------------------------------|
A|--------0--------------------------|
E|-------------3-----3---------------|

Haven't been seeing you much


e|--------1-----1------1-----1-----------|
B|---------------------------------------|
G|-----3-----3------3------3-------------|
D|---------------------------------------|
A|--1-----0------------------------------|
E|----------------3------3---------------|

You've got friends you like

e|------1-----1----1-----1-----------|
B|-----------------------------------|
G|----3-----3----3-----3-------------|
D|--1--------------------------------|
A|--------0--------------------------|
E|-------------3-----3---------------|
I don't know them

e|--------1-----1------1-----1-------1----1----1---1---1---1--|
B|------------------------------------------------------------|
G|-----3-----3------3------3------3----3-----3---3---3---3----|
D|---------0------1-------------0-----------------------------|
A|--1-------------------0------------0------------------------|
E|-----------------------------------------3---3---3---3------|
And I don't know if I know you


[Outro]

e|--------1-----1------------------|
B|---------------------------------|
G|-----3-----3-------3-------------|
D|---------------------------------|
A|--1-----0-------1----------------|
E|---------------------------------|
And I'll stay down


Texten:

Haven't been seeing you much
You've got friends you like
I don't know them
And I don't know if I know you

Do you like coming home?
It's been a long time now
Do you like yourself when I'm around?
I don't like myself then I'm around

I've been taking precautions
They are for no use, I know
When you leave I'll be down
And I'll stay down

            
            
Suggest correction
Creating personal tab
Creating personal tab
You can edit any tab online and save it as your Personal.

You can edit, replace or remove any tab part or add personal notes – all changes will be seen only by you.

Personal tabs can be accessed anytime from any device, even offline.
Learn more »
Give kudos to tab author, rate the tab!
1 2 3 4 5
comments
print report bad tab
guest
Wanna post a correction for this tab? Suggest correction