Oops, an error
Loading. Please wait.
We have Chord Pro version of Coffee Talk.
It's the closest thing you can get to the original song and it has interactive parts. Check out the tab »
×

Coffee Talk tab

version 1
version 1

Whole song

  • Full tab of every single part (Non-Exact Rhythm) of the song Coffee Talk.

Interactive

1,528 views 39 this week
no commentswrite comment
1 2 3 4 5
x 6
add to favorites
×
Save as Personal and add changes to this tab that will be seen only by you. Learn more ›
×
You can save this tab as Personal to edit and correct it or add notes. All changes will be seen only by you. Learn more »
launch autoscroll
font size
0
reset
how to read this tab
guitar tuner
edit
Autoscroll
slow
fast
+/-
esc
set tempo
stop
About this tab version
Full tab of every single part (Non-Exact Rhythm) of the song Coffee Talk. Was this info helpful? Yes No
Coffee Talk - Broadside (Off their album 'Old Bones')

[Intro] Chords (Guitar 1):
"Lately, All I Wanna Do..." (Different Chords Than The Chorus)
E|-----------------------------------------------------------------------------------------------|
B|-----------------------------------------------------------------------------------------------|
G|-----------3--3--3--3--------------3--3--3--3-----------------3--3--3--3--------------3--------|
D|--1--1--1--3--3--3--3-----1--1--1--3--3--3--3--------1--1--1--3--3--3--3--------5--1--3--------|
A|--1--1--1--1--1--1--1-----1--1--1--1--1--1--1--------1--1--1--1--1--1--1--------5--1--1--------|
D|--1--1--1-----------------1--1--1--------------------1--1--1--------------------5--1-----------|

[Post-Intro] Main Riff (Guitar 2):

E|--6-------------------3--------------------------|--3--3--3-----------6--6--6-------------------|
B|-----4--4--4--3/4--------4--4--4--4--3h4p3-------|-----------4--4--4-----------3--3--3--3h4--4--|
G|-------------------4------------------------5p3--|----------------------------------------------|
D|-------------------------------------------------|----------------------------------------------|
A|-------------------------------------------------|----------------------------------------------|
D|-------------------------------------------------|----------------------------------------------|
                                                   ^(Play 3 Times)
[Post-Intro] Chords (Guitar 1):

E|-------------------------|-------------------------|-------------------------|--------------------------|
B|-------------------------|-------------------------|-------------------------|--------------------------|
G|-------------------------|-------------------------|-------------------------|--------------------------|
D|--1--1--1----6--6--6--6--|--1--1--1----6--6--6--6--|--1--1----1--6--6--6--6--|--5--5--1--1--6-----8--8--|
A|--1--1--1----6--6--6--6--|--1--1--1----6--6--6--6--|--1--1----1--6--6--6--6--|--5--5--1--1--6-----8--8--|
D|--1--1--1----6--6--6--6--|--1--1--1----6--6--6--6--|--1--1----1--6--6--6--6--|--5--5--1--1--6-----8--8--|

[Verse 1-Part 1] Acoustic Chords (Guitar 1):
"Aimlessly driving on the highway..."
E|--3--3--3--3--3--3--3--3--|--------------------------|--3--3--3--3--3--3--3--3--|--1--1--------1--1--|
B|--4--4--4--4--4--4--4--4--|--9--9--9--9--9--9--9--9--|--4--4--4--4--4--4--4--4--|--3--3--------3--3--|
G|--5--5--5--5--5--5--5--5--|--8--8--8--8--8--8--8--8--|--5--5--5--5--5--5--5--5--|--3--3--------3--3--|
D|--5--5--5--5--5--5--5--5--|--6--6--6--6--6--6--6--6--|--5--5--5--5--5--5--5--5--|--3--3--------3--3--|
A|--3--3--3--3--3--3--3--3--|--6--6--6--6--6--6--6--6--|--3--3--3--3--3--3--3--3--|--1--1--------1--1--|
D|--------------------------|--6--6--6--6--6--6--6--6--|--------------------------|--------------------|

[Verse 1-Part 1] Distorted Chords (Guitar 2):
"Aimlessly driving on the highway..."
E|--------------------------|-----------------------------|--------------------------|--------------------|
B|--4-----------------------|-----------------------------|--------------------------|--------------------|
G|--5-----------------------|-----------------------------|--5-----------------------|--3--3--------3--3--|
D|--5-----------------------|-----------------------------|--5-----------------------|--3--3--------3--3--|
A|--3-----------------------|-----------------------------|--3-----------------------|--1--1--------1--1--|
D|--------------------------|-----------------------------|--------------------------|--------------------|

[Verse 1-Part 2] Chords (Guitar 1):
"Please don’t take this as anything but honest..."
E|---------------------------------------------------------------------------------------------------------|
B|---------------------------------------------------------------------------------------------------------|
G|---------------------------------------------------------------------------------------------------------|
D|--6--6--6--6--6--6--6--6--10--10--10--10--8--8--8--8-----6--6--6--6--6--6--6--6--1--1--1--1--3--3--3--3--|
A|--6--6--6--6--6--6--6--6--10--10--10--10--8--8--8--8-----6--6--6--6--6--6--6--6--1--1--1--1--3--3--3--3--|
D|--6--6--6--6--6--6--6--6--10--10--10--10--8--8--8--8-----6--6--6--6--6--6--6--6--1--1--1--1--3--3--3--3--|

[Verse 1-Part 2 Continued] Chords (Guitar 1):
"I’m still stuck on last Thursday..."
E|-------------------------------------------------------------|-----------------------------------------|
B|-------------------------------------------------------------|-----------------------------------------|
G|-------------------------------------------------------------|--------------------------3--3--3--3--3--|
D|--6--6--6--6--6--6--6--6--10--10--10--10--13--13--13--13-----|--3--3--3--3--3--3--3--3--3--3--3--3--3--|
A|--6--6--6--6--6--6--6--6--10--10--10--10--13--13--13--13-----|--3--3--3--3--3--3--3--3--1--1--1--1--1--|
D|--6--6--6--6--6--6--6--6--10--10--10--10--13--13--13--13-----|--3--3--3--3--3--3--3--3-----------------|

[Verse 1-Part 2] Lead (Guitar 2):
"Please don’t take this as anything but honest..."
E|--6--6--6--6--4--4--3--3--|--4--4--4--4--3--3--1--1--|--6--6--6--6--4--4--3--3--|--4--4--4--4--4--|
B|--4--4--4--4--4--4--4--4--|--4--4--4--4--4--4--4--4--|--4--4--4--4--4--4--4--4--|--4--4--4--4--4--|
G|--------------------------|--------------------------|--------------------------|-----------------|
D|--------------------------|--------------------------|--------------------------|-----------------|
A|--------------------------|--------------------------|--------------------------|-----------------|
D|--------------------------|--------------------------|--------------------------|-----------------|

[Chorus] Chords (Guitar 1):
"Lately, All I Wanna Do..."
E|-----------------------------------------------------------------------------------------|
B|-----------------------------------------------------------------------------------------|
G|-----------------------------------------------------------------------------------------|
D|--1--1--1--6--6--6--6----1--1--1--6--6--6--6----1--1--1--6--6--6--6----5--1--6-----8--8--|
A|--1--1--1--6--6--6--6----1--1--1--6--6--6--6----1--1--1--6--6--6--6----5--1--6-----8--8--|
D|--1--1--1--6--6--6--6----1--1--1--6--6--6--6----1--1--1--6--6--6--6----5--1--6-----8--8--|

[Chorus Continued] Chords (Guitar 1):
"Damn girl, you don't even know"
E|-----------------------------------------------------------------------------------------|
B|-----------------------------------------------------------------------------------------|
G|-----------------------------------------------------------------------------------------|
D|--1--1--1--6--6--6--6----1--1--1--6--6--6--6----1--1--1--6--6--6--6----3--5--6-----8--8--|
A|--1--1--1--6--6--6--6----1--1--1--6--6--6--6----1--1--1--6--6--6--6----3--5--6-----8--8--|
D|--1--1--1--6--6--6--6----1--1--1--6--6--6--6----1--1--1--6--6--6--6----3--5--6-----8--8--|

[Chorus] Lead (Guitar 2):
"Lately, All I Wanna Do..." (Play the first part again before continuing)
E|--------------------------------|---------------------------------|
B|--11-----8-----11-----8h9p8-----|--11-----8-----11-----9p8--------|
G|------8-----8------8---------8--|------8-----8------8-------10p8--|
D|--------------------------------|---------------------------------|
A|--------------------------------|---------------------------------|
D|--------------------------------|---------------------------------|

[Chorus Continued] Lead (Guitar 2):
"Stay Up All Night When You're Not At Home..."
E|-------------------------------------------------|
B|--8--8--8-----------11--11--11-------------------|
G|-----------8--8--8--------------7--7--7--7/8--8--|
D|-------------------------------------------------|
A|-------------------------------------------------|
D|-------------------------------------------------|

[Verse 2 Part 1] Chords (Guitar 1):
"Waffle house, black coffee in our mugs..."
E|-----------------------------------------------------------------|
B|-----------------------------------------------------------------|
G|-----------------------------------------------------------------|
D|--10--10--10-----6--6--6-----10--10--10-----8--8--8-----8--8--8--|
A|--10--10--10-----6--6--6-----10--10--10-----8--8--8-----8--8--8--|
D|--10--10--10-----6--6--6-----10--10--10-----8--8--8-----8--8--8--|

[Verse 2 Part 2] Chords (Guitar 1):
"It’s just that we’ve been up all night sharing stories of our past..."
E|--------------------------------------|--------------------------------------|
B|--------------------------------------|--------------------------------------|
G|--------------------------------------|--------------------------------------|
D|--6--6--6-----10--10--10-----8--8--8--|--6--6--6-----10--10--10-----8--8--8--|
A|--6--6--6-----10--10--10-----8--8--8--|--6--6--6-----10--10--10-----8--8--8--|
D|--6--6--6-----10--10--10-----8--8--8--|--6--6--6-----10--10--10-----8--8--8--|

[Verse 2 Part 1] Lead (Guitar 2):
"Waffle house, black coffee in our mugs..."
E|------------------------------|--11------11------11------10------10------10------10------|
B|--11--11--11--11--11--11--11--|------11------11------11------11------11------11------11--|
G|--8---8---8---8---8---8---8---|----------------------------------------------------------|
D|------------------------------|----------------------------------------------------------|
A|------------------------------|----------------------------------------------------------|
D|------------------------------|----------------------------------------------------------|
                                ^(This chord is played over and over)
[Verse 2 Part 1 Continued] Lead (Guitar 2):
"We’re hazy eyed, but not because we’re fucked up..."
E|----------------------------------|--------------------------------|
B|--11--11--11--11--11--11--11--11--|--11--11--11--11--11--8h9p8-----|
G|--8---8---8---8---8---8---8---8---|--8---8---8---8---8----------8--|
D|----------------------------------|--------------------------------|
A|----------------------------------|--------------------------------|
D|----------------------------------|--------------------------------|
                                    ^(Chord Rhythm isn't Exact)
[Verse 2 Part 2] Lead (Guitar 2):
"It’s just that we’ve been up all night sharing stories of our past"
E|------|
B|--11--|
G|--8---|
D|------|
A|------|
D|------|
        ^(Play this chord over and over in 8th Rhythms)

[Breakdown] Chord (Guitar 1):
"Now All I Wanna Do..."
E|-----|
B|-----|
G|-----|
D|--6--|
A|--6--|
D|--6--|

[Breakdown] Riff (x4)(Guitar 2):
"Now All I Wanna Do..."
E|--------------------------------------------------|
B|--8--8--8--6--6--6--9--9--9--6--6--6--8--8--6--6--|
G|--8--8--8--8--8--8--8--8--8--8--8--8--8--8--8--8--|
D|--------------------------------------------------|
A|--------------------------------------------------|
D|--------------------------------------------------|

[Chorus] Chords (Guitar 1):
"Lately, All I Wanna Do..."
E|-----------------------------------------------------------------------------------------|
B|-----------------------------------------------------------------------------------------|
G|-----------------------------------------------------------------------------------------|
D|--1--1--1--6--6--6--6----1--1--1--6--6--6--6----1--1--1--6--6--6--6----5--1--6-----8--8--|
A|--1--1--1--6--6--6--6----1--1--1--6--6--6--6----1--1--1--6--6--6--6----5--1--6-----8--8--|
D|--1--1--1--6--6--6--6----1--1--1--6--6--6--6----1--1--1--6--6--6--6----5--1--6-----8--8--|

[Chorus Continued] Chords (Guitar 1):
"Damn girl, you don't even know"
E|-----------------------------------------------------------------------------------------|
B|-----------------------------------------------------------------------------------------|
G|-----------------------------------------------------------------------------------------|
D|--1--1--1--6--6--6--6----1--1--1--6--6--6--6----1--1--1--6--6--6--6----3--5--6-----8--8--|
A|--1--1--1--6--6--6--6----1--1--1--6--6--6--6----1--1--1--6--6--6--6----3--5--6-----8--8--|
D|--1--1--1--6--6--6--6----1--1--1--6--6--6--6----1--1--1--6--6--6--6----3--5--6-----8--8--|

[Chorus] Lead (Guitar 2):
"Lately, All I Wanna Do..."(Repeat the first measure again after the second)
E|--------------------------------|---------------------------------|
B|--11-----8-----11-----8h9p8-----|--11-----8-----11-----9p8--------|
G|------8-----8------8---------8--|------8-----8------8-------10p8--|
D|--------------------------------|---------------------------------|
A|--------------------------------|---------------------------------|
D|--------------------------------|---------------------------------|

[Chorus Continued] Lead (Guitar 2):
"Stay up all night when you're not at home"
E|-------------------------------------------------|
B|--8--8--8-----------11--11--11-------------------|
G|-----------8--8--8--------------7--7--7--7/8--8--|
D|-------------------------------------------------|
A|-------------------------------------------------|
D|-------------------------------------------------|

[Bridge Part 1] Chords (Guitar 1):
"And my chest ignites when I hear you speak..."
E|--------------|-----------|
B|--------------|-----------|
G|--------------|-----------|
D|--10--10--10--|--6--6--6--|
A|--10--10--10--|--6--6--6--|
D|--10--10--10--|--6--6--6--|

[Bridge Part 1] Lead (Guitar 2):
"...And My Chest..."
E|----------------------------------------------------------|
B|----------------------------------------------------------|
G|--------------8--8--8--------------8--8--8----------8--8--|
D|--10--10--10--x--x--x--10--10--10--x--x--x--10--10--x--x--|
A|--10--10--10--6--6--6--10--10--10--6--6--6--10--10--6--6--|
D|--10--10--10-----------10--10--10-----------10--10--------|

[Bridge Part 1 Continued] Lead (Guitar 2):
"...Ignites when I hear you speak"
E|----------------------------------------------------------|
B|----------------------------------------------------------|
G|-----------12--12--12-----------12--12--12--------12--12--|
D|--6--6--6--x---x---x---6--6--6--x---x---x---6--6--x---x---|
A|--6--6--6--10--10--10--6--6--6--10--10--10--6--6--10--10--|
D|--6--6--6--------------6--6--6--------------6--6----------|

[Bridge Buildup] Chords (Guitar 1):
"Miss your company long before you leave..."
E|-------------------------------------------------------------|
B|-------------------------------------------------------------|
G|-------------------------------------------------------------|
D|--10--10--10--10--10--10--10--10--6--6--6--6--6--6--6--6-----|
A|--10--10--10--10--10--10--10--10--6--6--6--6--6--6--6--6-----|
D|--10--10--10--10--10--10--10--10--6--6--6--6--6--6--6--6-----|

[Bridge Buildup] Lead (Guitar 2):
"Miss your company long before you leave..."
E|--------------------------------------------------------------------------|
B|--------------------------------------------------------------------------|
G|--8/10--10--10--10--12--12--15--15--15--15--15--15--15--15--15--15--------|
D|--x-x---x---x---x---x---x---x---x---x---x---x---x---x---x---x---x---------|
A|--6/8---8---8---8---10--10--13--13--13--13--13--13--13--13--13--13--------|
D|--------------------------------------------------------------------------|

[Bridge Part 2] Chords (Guitar 1):
"Your scent, it lingers all within my sheets..."
E|------------------------|------------------------------|
B|------------------------|------------------------------|
G|------------------------|------------------------------|
D|--10-----1-----6-----3--|-----10-----1-----3--5--8--5--|
A|--10-----1-----6-----3--|-----10-----1-----3--5--8--5--|
D|--10-----1-----6-----3--|-----10-----1-----3--5--8--5--|
(Sorry, No Rhythm)

[Bridge Part 2] Leads(Guitar 1)(x2):
"Your scent, it lingers all within my sheets..." (Don't play the second measure the second time around)
E|-----------------------------------------------------|--------------------------------------------------|
B|--6-----6-----6--8--6-----11--------11--------11/13--|--6-----6-----6--8--6-----9--------8--------8-----|
G|-----8-----8-----------8------8--8------8--8---------|-----8-----8-----------8-----8--8-----8--8-----8--|
D|-----------------------------------------------------|--------------------------------------------------|
A|-----------------------------------------------------|--------------------------------------------------|
D|-----------------------------------------------------|--------------------------------------------------|
(Very Faint In The Background)

[Key-Shifted Chorus] Chords (Guitar 1):
"Lately, All I Wanna Do..." :
E|----------------------------------------------------------------------------|
B|----------------------------------------------------------------------------|
G|-----------3--3--3-----------3--3--3-----------3--3--3----------------------|
D|--3--3--3--3--3--3--3--3--3--3--3--3--3--3--3--3--3--3--7--3--8-----10--10--|
A|--3--3--3--1--1--1--3--3--3--1--1--1--3--3--3--1--1--1--7--3--8-----10--10--|
D|--3--3--3-----------3--3--3-----------3--3--3-----------7--3--8-----10--10--|

[Key-Shifted Chorus Continued] Chords (Guitar 1):
"And Damn Girl, You Don't Even Know...":
E|----------------------------------------------------------------------------|
B|----------------------------------------------------------------------------|
G|-----------3--3--3-----------3--3--3-----------3--3--3----------------------|
D|--3--3--3--3--3--3--3--3--3--3--3--3--3--3--3--3--3--3--5--7--8-----10--10--|
A|--3--3--3--1--1--1--3--3--3--1--1--1--3--3--3--1--1--1--5--7--8-----10--10--|
D|--3--3--3-----------3--3--3-----------3--3--3-----------5--7--8-----10--10--|

[Key-Shifted Chorus) Leads (Guitar 2)(x2):
"Lately, All I Wanna Do...":
E|------------------------------------------|----------------------------------------|
B|--13------10------13------10--11--10------|--13------10------13------8-------------|
G|------10------10------10--------------10--|------10------10------10-----10--9/10---|
D|------------------------------------------|----------------------------------------|
A|------------------------------------------|----------------------------------------|
D|------------------------------------------|----------------------------------------|

[End-On](Guitar 1):
E|-----|
B|-----|
G|--2--|
D|--3--|
A|--1--|
D|-----|

***********************************
| h   Hammer-on
| p   Pull off
| x   Dead note
| /   Slide-up
***********************************

            
            
Suggest correction
Creating personal tab
Creating personal tab
You can edit any tab online and save it as your Personal.

You can edit, replace or remove any tab part or add personal notes – all changes will be seen only by you.

Personal tabs can be accessed anytime from any device, even offline.
Learn more »
comments
print report bad tab
guest
You may want to rate the tab now too:
select rating
Wanna post a correction for this tab? Suggest correction