Oops, an error
Loading. Please wait.

Hidden Colors tab

376 views 24 this week
no commentswrite comment
1 2 3 4 5
2 more votes to show rating
add to favorites
×
Save as Personal and add changes to this tab that will be seen only by you. Learn more ›
×
You can save this tab as Personal to edit and correct it or add notes. All changes will be seen only by you. Learn more »
launch autoscroll
font size
0
reset
how to read this tab
guitar tuner
edit
Autoscroll
slow
fast
+/-
esc
set tempo
stop
About this tab version
First tab of Hidden Colors by Broadside. Both Guitar parts. All nuances accounted for. Was this info helpful? Yes No
[Intro Parts 1/2] 
(Guitar 1)
E|----------------------------------|----------------------------------|
B|-----------9--9--9--9--9--9--9/8--|-----------3--3--3--3--3--3--3/4--|
G|-----------8--8--8--8--8--8--8-8--|-----------3--3--3--3--3--3--3-3--|
D|--6--6----------------------------|--1--1----------------------------|
A|--6--6----------------------------|--1--1----------------------------|
D|--6--6----------------------------|--1--1----------------------------|(x2)

[Intro Part 2] 
(Guitar 2)
E|--------------------------|
B|--------------------------|
G|--------------------------|
D|--1-----1-----3--3--3--3--|
A|--1-----1-----3--3--3--3--|
D|--1-----1-----3--3--3--3--|

[Main Riff] 
(Guitar 1)
E|----------------------------------|----------------------------------|
B|-----------9--9--9--9--9--9--9/8--|-----------3--3--3--3--3--3--3/4--|
G|-----------8--8--8--8--8--8--8-8--|-----------3--3--3--3--3--3--3-3--|
D|--6--6----------------------------|--1--1----------------------------|
A|--6--6----------------------------|--1--1----------------------------|
D|--6--6----------------------------|--1--1----------------------------|(x2)

[Main Riff] 
(Guitar 1)
E|--------|--------|--------|-------------------------|
B|--------|--------|--------|-------------------------|
G|--------|--------|--------|-------------3--3--3--3--|
D|--6--6--|--1--1--|--6--6--|--1-----1----3--3--3--3--|
A|--6--6--|--1--1--|--6--6--|--1-----1----1--1--1--1--|
D|--6--6--|--1--1--|--6--6--|--1-----1----------------|

[Main Riff] 
(Whistling/Guitar 3)
E|--11--11----11--11p13/15-|
B|-------------------------|
G|-------------------------|
D|-------------------------|
A|-------------------------|
D|-------------------------|

[Verse] 
(Guitar 1)
"I wanted to write you..."
E|--6--6-----6--6--6--6--|
B|--4--4-----4--4--4--4--|
G|-----------------------|
D|-----------------------|
A|-----------------------|
D|-----------------------|(x16)

[Verse Part 2] 
(Guitar 2)
"And if I could paint you..."
E|-----------------|-------------------|
B|-----------------|-------------------|
G|-----------------|-------------------|
D|--------------5--|--------------6p5--|
A|--6--6--6--6-----|--6--6--6--6-------|
D|-----------------|-------------------|(x4)

[Pre-Chorus] 
(Guitar 1)
"Like neon lights..."
E|-----------------------------------------|
B|-----11-----------11--9--8--------11-----|
G|--8------8-----8---------------8------8--|
D|-----------------------------------------|
A|-----------------------------------------|
D|-----------------------------------------|

[Transition] 
(Both Guitars)
"In the dark..."
E|-----------|
B|-----------|
G|--3--3--3--|
D|--3--3--3--|
A|--1--1--1--|
D|-----------|

[Chorus] 
(Guitar 2)
"She's perfect, Undoubtedly worth it..."
E|--------|--------|--------|--------|--------|--------|--------|--------|
B|--------|--------|--------|--------|--------|--------|--------|--------|
G|--------|--------|--------|--------|--------|--------|--------|--------|
D|--1--1--|--8--8--|--6--6--|--6--6--|--1--1--|--8--8--|--6--6--|--6--8--|
A|--1--1--|--8--8--|--6--6--|--6--6--|--1--1--|--8--8--|--6--6--|--6--8--|
D|--1--1--|--8--8--|--6--6--|--6--6--|--1--1--|--8--8--|--6--6--|--6--8--|

[Chorus] 
(Guitar 1)
"She's perfect, Undoubtedly worth it..."
E|------------------|---------|--------|---------|
B|------------------|---------|--------|---------|
G|--12--12--12--15--|--10--7--|--5--7--|--8--10--|
D|--x---x---x---x---|--x---x--|--x--x--|--x--x---|
A|--10--10--10--13--|--8---5--|--3--5--|--6--8---|
D|------------------|---------|--------|---------|(x2)

[Main Riff] 
(Both Guitars)
E|----------------------------------|----------------------------------|
B|-----------9--9--9--9--9--9--9/8--|-----------3--3--3--3--3--3--3/4--|
G|-----------8--8--8--8--8--8--8-8--|-----------3--3--3--3--3--3--3-3--|
D|--6--6----------------------------|--1--1----------------------------|
A|--6--6----------------------------|--1--1----------------------------|
D|--6--6----------------------------|--1--1----------------------------|

E|----------------------------------|---------------------|
B|-----------9--9--9--9--9--9--9/8--|---------------------|
G|-----------8--8--8--8--8--8--8-8--|------------3--3--3--|
D|--6--6----------------------------|--3----3----3--3--3--|
A|--6--6----------------------------|--3----3----1--1--1--|
D|--6--6----------------------------|--3----3-------------|

[Main Riff]
(Whistling/Guitar 1)
E|--11--11----11--11p13/15-|
B|-------------------------|
G|-------------------------|
D|-------------------------|
A|-------------------------|
D|-------------------------|

[Verse 2 Part 1] 
(Guitar 1)
"One scroll through your gram..."
E|--6--6-----6--6--6--6--|
B|--4--4-----4--4--4--4--|
G|-----------------------|
D|-----------------------|
A|-----------------------|
D|-----------------------|(x8)

[Verse 2 Part 2] 
(Guitar 1)
"The fact that you blessed us..."
E|--------------------------------------|-----------------------------------------|
B|--8--8-----8--8-----6--6-----6--6-----|--8--8-----8--8-----6--6-----11--11--11--|
G|--------8--------8--------8--------8--|--------8--------8--------8--8---8---8---|
D|--------------------------------------|-----------------------------------------|
A|--------------------------------------|-----------------------------------------|
D|--------------------------------------|-----------------------------------------|

E|--------------------------------------|----------------------------|
B|--8--8-----8--8-----6--6-----6--6-----|--8--8-----8--8-----8/11\6--|
G|--------8--------8--------8--------8--|--------8--------8----------|
D|--------------------------------------|----------------------------|
A|--------------------------------------|----------------------------|
D|--------------------------------------|----------------------------|

[Verse 2 Part 2] 
(Guitar 2)
"The fact that you blessed us..."
E|-----------------|--------------|-----------------|--------------|
B|-----------------|--------------|-----------------|--------------|
G|--8--8--8--8--8--|--8--8--8--8--|--8--8--8--8--8--|--8--8--8--8--|
D|--8--8--8--8--8--|--8--8--8--8--|--8--8--8--8--8--|--8--8--8--8--|
A|--6--6--6--6--6--|--6--6--6--6--|--6--6--6--6--6--|--6--6--6--6--|
D|-----------------|--------------|-----------------|--------------|

E|-----------------|--------------|-----------------|-----------|
B|-----------------|--------------|-----------------|-----------|
G|-----------------|--------------|-----------------|--5--8-----|
D|--6--6--6--6--6--|--6--6--6--6--|--6--6--6--6--6--|--5--8--6--|
A|--6--6--6--6--6--|--6--6--6--6--|--6--6--6--6--6--|--3--6--6--|
D|--6--6--6--6--6--|--6--6--6--6--|--6--6--6--6--6--|--------6--|

[Pre-Chorus] 
(Guitar 1)
"Like neon lights..."
E|-----------------------------------------|
B|-----11-----------11--9--8--------11-----|
G|--8------8-----8---------------8------8--|
D|-----------------------------------------|
A|-----------------------------------------|
D|-----------------------------------------|

[Transition] 
(Both Guitars)
"In the dark..."
E|-----------------|
B|-----------------|
G|-----------------|
D|--3--3--3--3--3--|
A|--3--3--3--3--3--|
D|--3--3--3--3--3--|

[Chorus] 
(Guitar 2)
"She's perfect, Undoubtedly worth it..."
E|--------|--------|--------|--------|--------|--------|--------|--------|
B|--------|--------|--------|--------|--------|--------|--------|--------|
G|--------|--------|--------|--------|--------|--------|--------|--------|
D|--1--1--|--8--8--|--6--6--|--6--6--|--1--1--|--8--8--|--6--6--|--6--8--|
A|--1--1--|--8--8--|--6--6--|--6--6--|--1--1--|--8--8--|--6--6--|--6--8--|
D|--1--1--|--8--8--|--6--6--|--6--6--|--1--1--|--8--8--|--6--6--|--6--8--|

[Chorus] 
(Guitar 1)
"She's perfect, Undoubtedly worth it..."
E|------------------|---------|--------|---------|
B|------------------|---------|--------|---------|
G|--12--12--12--15--|--10--7--|--5--7--|--8--10--|
D|--x---x---x---x---|--x---x--|--x--x--|--x--x---|
A|--10--10--10--13--|--8---5--|--3--5--|--6--8---|
D|------------------|---------|--------|---------|(x2)

[Bridge] 
(Guitar 2)
"Made to believe.."
E|-----------------------|-----------------------|
B|-----------------------|-----------------------|
G|--5-----------3-----3--|--5-----8--------------|
D|--5-----1-----3-----3--|--5-----8-----6-----6--|
A|--3-----1-----1-----1--|--3-----6-----6-----6--|
D|--------1--------------|--------------6-----6--|

[Bridge] 
(Guitar 1)
"Made to believe.."
E|--6-----6-----6-----6--|--6-----6-----6-----6--|
B|--4-----4-----3-----3--|--4-----4-----3-----3--|
G|--3-----3-----3-----3--|--3-----3-----3-----3--|
D|-----------------------|-----------------------|
A|-----------------------|-----------------------|
D|-----------------------|-----------------------|

[Transition] 
(Guitar 1)
E|----------------------------------|-------------------------------|
B|-----------9--9--9--9--9--9--9/8--|-----------3--3--3--3----3--3--|
G|-----------8--8--8--8--8--8--8-8--|--3--3-----3--3--3--3----3--3--|
D|--1--1----------------------------|--3--3-----------x--x----x--x--|
A|--1--1----------------------------|--1--1-----------1--1----1--1--|
D|--1--1----------------------------|-------------------------------|

[Transition] 
(Guitar 2)
E|----------------------------------|--------------------------|-----|
B|-----------9--9--9--9--9--9--9/8--|--------------------------|-----|
G|-----------8--8--8--8--8--8--8-8--|--3--3------3--3----3--3--|-----|
D|--1--1----------------------------|--3--3------3--3----3--3--|--6--|
A|--1--1----------------------------|--1--1------1--1----1--1--|--6--|
D|--1--1----------------------------|--------------------------|--6--|

[Chorus] 
(Guitar 2)
"She's perfect, Undoubtedly worth it..."
E|--------|--------|--------|--------|--------|--------|--------|--------|
B|--------|--------|--------|--------|--------|--------|--------|--------|
G|--------|--------|--------|--------|--------|--------|--------|--------|
D|--1--1--|--8--8--|--6--6--|--6--6--|--1--1--|--8--8--|--6--6--|--6--8--|
A|--1--1--|--8--8--|--6--6--|--6--6--|--1--1--|--8--8--|--6--6--|--6--8--|
D|--1--1--|--8--8--|--6--6--|--6--6--|--1--1--|--8--8--|--6--6--|--6--8--|

[Chorus] 
(Guitar 1)
"She's perfect, Undoubtedly worth it..."
E|------------------|---------|--------|---------|
B|------------------|---------|--------|---------|
G|--12--12--12--15--|--10--7--|--5--7--|--8--10--|
D|--x---x---x---x---|--x---x--|--x--x--|--x--x---|
A|--10--10--10--13--|--8---5--|--3--5--|--6--8---|
D|------------------|---------|--------|---------|(x2)

[Main Riff] 
(Both Guitars)
E|----------------------------------|----------------------------------|
B|-----------9--9--9--9--9--9--9/8--|-----------3--3--3--3--3--3--3/4--|
G|-----------8--8--8--8--8--8--8-8--|-----------3--3--3--3--3--3--3-3--|
D|--6--6----------------------------|--1--1----------------------------|
A|--6--6----------------------------|--1--1----------------------------|
D|--6--6----------------------------|--1--1----------------------------|

E|----------------------------------|---------------------|
B|-----------9--9--9--9--9--9--9/8--|---------------------|
G|-----------8--8--8--8--8--8--8-8--|---------------------|
D|--6--6----------------------------|--1----1----3--3--3--|
A|--6--6----------------------------|--1----1----3--3--3--|
D|--6--6----------------------------|--1----1----3--3--3--|

[Main Riff] 
(Whistling/Guitar 1)
E|--11--11----11--11p13/15-|
B|-------------------------|
G|-------------------------|
D|-------------------------|
A|-------------------------|
D|-------------------------|

[Outro] 
(Guitar 1)
"I wanted to write you..."
E|--6--6-----6--6--6--6--|
B|--4--4-----4--4--4--4--|
G|-----------------------|
D|-----------------------|
A|-----------------------|
D|-----------------------|(x8)

[Outro] 
(Guitar 2)
"I wamted to write you another of my songs..."
E|-----------------------|-----------------------|
B|-----------------------|-----------------------|
G|-----------------------|--------------------3--|
D|--6-----6-----1-----1--|--6-----6-----1-----3--|
A|--6-----6-----1-----1--|--6-----6-----1-----1--|
D|--6-----6-----1-----1--|--6-----6-----1--------|


************************

|  h   Hammer-on
|  p   Pull-Off
|  /   Slide Up
|  \   Slide Dowm
|  x   Muted Note

************************

            
            
Suggest correction
Creating personal tab
Creating personal tab
You can edit any tab online and save it as your Personal.

You can edit, replace or remove any tab part or add personal notes – all changes will be seen only by you.

Personal tabs can be accessed anytime from any device, even offline.
Learn more »
Give kudos to tab author, rate the tab!
1 2 3 4 5
comments
print report bad tab
guest
You may want to rate the tab now too:
select rating
Wanna post a correction for this tab? Suggest correction