Oops, an error
Loading. Please wait.

Laps Around A Picture Frame tab

358 views 15 this week
no commentswrite comment
1 2 3 4 5
2 more votes to show rating
add to favorites
×
Save as Personal and add changes to this tab that will be seen only by you. Learn more ›
×
You can save this tab as Personal to edit and correct it or add notes. All changes will be seen only by you. Learn more »
launch autoscroll
font size
0
reset
how to read this tab
guitar tuner
edit
Autoscroll
slow
fast
+/-
esc
set tempo
stop
Tab for Broadside's new song "Laps Around A Picture Frame"
(The ammount of times a chord is played tabbed proportionately 
per each measure but not the exact amount)

[Verse 1] 
(Guitar 1)
"In My Head, I Feel You Stare..."
Eb|--5-----4-----0-----2/4--|--5--4--0--2--|
Bb|-------------------------|--------------|
Gb|-------------------------|--------------|
C#|-------------------------|--------------|
Ab|-------------------------|--------------|
C#|-------------------------|--------------|(x2)

[Verse 2] 
(Guitar 1)
"I'm In My Head, I'm Hardly Dressed..."
Eb|--------5-----------4-----------------2--|
Bb|--------------------------------5-----3--|
Gb|-----2-----------2-----------2--------2--|
C#|--4-----------2-----------0-----------0--|
Ab|-----------------------------------------|
C#|-----------------------------------------|(x2)

[Verse 2 Continued] 
(Guitar 1)
"I Hate Myself..."
Eb|--5-----4-----------2--|
Bb|--x-----x-----5-----3--|
Gb|--2-----2-----2-----2--|
C#|--4-----2-----0-----0--|
Ab|-----------------------|
C#|-----------------------|(x2)

[Chorus] 
(Guitar 2)
"The Room Is Growing So Cold"
Eb|--------------|--------------|--------------|--------------|
Bb|--------------|--------------|--------------|--------------|
Gb|--------------|--------------|--------------|--------------|
C#|--4--4--4--4--|--2--2--2--2--|--0--0--0--0--|--0--0--0--2--|
Ab|--4--4--4--4--|--2--2--2--2--|--0--0--0--0--|--0--0--0--2--|
C#|--4--4--4--4--|--2--2--2--2--|--0--0--0--0--|--0--0--0--2--|(x4)

[Chorus] 
(Guitar 1)
"The Room Is Growing So Cold"
Eb|------|------|------|---------|
Bb|------|------|------|---------|
Gb|--14--|--13--|--11--|--11-13--|
C#|--x---|--x---|--x---|--x--x---|
Ab|--12--|--11--|--9---|--9--11--|
C#|------|------|------|---------|(x2)

[Chorus Continued] 
(Guitar 1)
"What Do You Want From Me? I Try My Best To Be..."
Eb|--9------9------9------9------7------7------10------10------|
Bb|-----10-----10-----10-----10-----10-----10------10------10--|
Gb|------------------------------------------------------------|
C#|------------------------------------------------------------|
Ab|------------------------------------------------------------|
C#|------------------------------------------------------------|(x2)

[Chorus Continued] 
(Guitar 1)
"The Room Is Growing So Cold"
Eb|------|------|------|---------|
Bb|------|------|------|---------|
Gb|--14--|--13--|--11--|--11-13--|
C#|--x---|--x---|--x---|--x--x---|
Ab|--12--|--11--|--9---|--9--11--|
C#|------|------|------|---------|

[Bridge] 
(Guitar 2)
"I know that you've been there before..."
Eb|--------------|--------------|------------------|--------------|
Bb|--------------|--------------|------------------|--------------|
Gb|--4--4--4--6--|--7--7--7--9--|--11--11--14--14--|--------------|
C#|--4--4--4--6--|--7--7--7--9--|--11--11--14--14--|--9--9--9--7--|
Ab|--2--2--2--4--|--5--5--5--7--|--9---9---12--12--|--9--9--9--7--|
C#|--------------|--------------|------------------|--9--9--9--7--|

[Bridge Continued] 
(Guitar 2)
"...Much more, Than loving to lose your own war..."
Eb|--------------|--------------|--------------|
Bb|--------------|--------------|--------------|
Gb|--------------|--------------|--------------|
C#|--0--0--0--2--|--4--4--7--7--|--9--9--9--7--|
Ab|--0--0--0--2--|--4--4--7--7--|--9--9--9--7--|
C#|--0--0--0--2--|--4--4--7--7--|--9--9--9--7--|

[Bridge] 
(Guitar 1)
"Left out, Stressed Out Baby..."
Eb|-----------------9--------|--------------------------------10--10--10--10--9---9---9---9------|
Bb|--12-----10--12--------7--|--10--10--10--10--9--9--10--10--10--10--10--10--10--10--10--10-----|
Gb|--------------------------|--9---9---9---9---9--9--9---9--------------------------------------|
C#|--------------------------|-------------------------------------------------------------------|
Ab|--------------------------|-------------------------------------------------------------------|
C#|--------------------------|-------------------------------------------------------------------|

[Bridge Continued] 
(Guitar 1)
"...Much more, Than loving to lose your own war..."
Eb|--12--12--12--12----------------10--10--10--10--9---9---9---9----|
Bb|--10--10--10--10--9--9--10--10--10--10--10--10--10--10--10--10---|
Gb|------------------9--9--9---9------------------------------------|
C#|-----------------------------------------------------------------|
Ab|-----------------------------------------------------------------|(x2)
C#|-----------------------------------------------------------------|

[Bridge Continued] 
(Guitar 1)
"Gotta Stand Up, Scream 'No More'"
Eb|------------------9------|------------------9-----|
Bb|--12--12--10--12-----10--|--12--12--10--12-----7--|
Gb|-------------------------|------------------------|
C#|-------------------------|------------------------|
Ab|-------------------------|------------------------|
C#|-------------------------|------------------------|

[Break] 
(Guitar 1)
Eb|--5-----4-----0-----2|
Bb|---------------------|
Gb|---------------------|
C#|---------------------|
Ab|---------------------|
C#|---------------------|

[Chorus] 
(Guitar 2)
"The Room Is Growing So Cold"
Eb|--------------|--------------|--------------|--------------|
Bb|--------------|--------------|--------------|--------------|
Gb|--------------|--------------|--------------|--------------|
C#|--4--4--4--4--|--2--2--2--2--|--0--0--0--0--|--0--0--0--2--|
Ab|--4--4--4--4--|--2--2--2--2--|--0--0--0--0--|--0--0--0--2--|
C#|--4--4--4--4--|--2--2--2--2--|--0--0--0--0--|--0--0--0--2--|(x4)

[Chorus] 
(Guitar 1)
"The Room Is Growing So Cold"
Eb|------|---------|---------|---------|------|------|------|---------|
Bb|------|---------|---------|---------|------|------|------|---------|
Gb|--14--|--13/16--|--14/16--|--11-13--|--14--|--13--|--14--|--11-13--|
C#|--x---|--x--x---|--x--x---|--x--x---|--x---|--x---|--x---|--x--x---|
Ab|--12--|--11/14--|--12-14--|--9--11--|--12--|--11--|--12--|--9--11--|
C#|------|---------|---------|---------|------|------|------|---------|

[Chorus Continued] 
(Guitar 1)
"What Do You Want From Me? I Try My Best To Be..."
Eb|--9------9------9------9------7------7------10------10------|
Bb|-----10-----10-----10-----10-----10-----10------10------10--|
Gb|------------------------------------------------------------|
C#|------------------------------------------------------------|
Ab|------------------------------------------------------------|
C#|------------------------------------------------------------|(x2)

[Chorus Continued] 
(Guitar 1)
"The Room Is Growing So Cold"
Eb|------|------|------|---------|
Bb|------|------|------|---------|
Gb|--14--|--16--|--11--|--11-13--|
C#|--x---|--x---|--x---|--x--x---|
Ab|--12--|--14--|--9---|--9--11--|
C#|------|------|------|---------|

[Outro] 
(Guitar 2)
"I'm Falling Apart Inside, Do You Really Care..."
Eb|--------------|--------------|--------------|--------------|
Bb|--------------|--------------|--------------|--------------|
Gb|--------------|--------------|--------------|--------------|
C#|--4--4--4--4--|--2--2--2--2--|--0--0--0--0--|--0--0--0--2--|
Ab|--4--4--4--4--|--2--2--2--2--|--0--0--0--0--|--0--0--0--2--|
C#|--4--4--4--4--|--2--2--2--2--|--0--0--0--0--|--0--0--0--2--|(x2)

[Outro] 
(Guitar 1)
"I'm Falling Apart Inside, Do You Really Care..."
Eb|--9------9------9------9------7------7------10------10------|
Bb|-----10-----10-----10-----10-----10-----10------10------10--|
Gb|------------------------------------------------------------|
C#|------------------------------------------------------------|
Ab|------------------------------------------------------------|
C#|------------------------------------------------------------|(x4)

[End] 
(Guitar 1)
"The Room Is Growing So Cold"
Eb|--------5-----------4-----------------2--|
Bb|--------------------------------5-----3--|
Gb|-----2-----------2-----------2--------2--|
C#|--4-----------2-----------0-----------0--|
Ab|-----------------------------------------|
C#|-----------------------------------------|(x3)


***********************************

| /   Slide up
| x   Dead note

***********************************

            
            
Suggest correction
Creating personal tab
Creating personal tab
You can edit any tab online and save it as your Personal.

You can edit, replace or remove any tab part or add personal notes – all changes will be seen only by you.

Personal tabs can be accessed anytime from any device, even offline.
Learn more »
Give kudos to tab author, rate the tab!
1 2 3 4 5
comments
print report bad tab
guest
You may want to rate the tab now too:
select rating
Wanna post a correction for this tab? Suggest correction