Oops, an error
Loading. Please wait.

Hamilton - Alexander Hamilton Tab

3,301 views 69 this week
no commentswrite comment
1 2 3 4 5
x 6
add to favorites
launch autoscroll
font size
0
reset
how to read this tab
guitar tuner
Autoscroll
slow
fast
+/-
esc
set tempo
stop
Author
Difficulty
Tuning
intermediate
E A D G B E
By Dan Travers
Tab #1
Alexander Hamilton from the musical Hamilton

[Intro]

e|--------------------------------9--7--6------------------------------------|
B|-----------------------------7---------------------------------------------|
G|---------------------------------------------------------------------------|
D|----4---4-4-4-4---4-4------------------------------------------------------|
A|----4---4-4-4-4---4-4------------------------------------------------------|
E|----2---2-2-2-2---2-2------------------------------------------------------|


[Verse]

e|---------------------------------------------------------------------------|
B|---------------------------------------------------------------------------|
G|---------------------------------------------------------------------------|
D|----9------4------5------0---8---9------4------5------0---8----------------|
A|-----------------------------------------------------10--------------------|
E|---------------------------------7------2------3----------6----------------|

e|---------------9--7--5---------------14--12--10----------------------------|
B|------------7--------------------10----------------------------------------|
G|---------------------------------------------------------------------------|
D|---9-7-9----------------4-2-4--------------------5-7-5------0-----8--------|
A|-----------------------------------------------------------10--------------|
E|---7-5-7----------------2-0-2--------------------3-5-5------------6--------|


Suggest correction
comments
print report bad tab
guest
You may want to rate the tab now too:
select rating
Wanna post a correction for this tab? Suggest correction