Oops, an error
Loading. Please wait.

The Same Thing We Do Everyday Pinky tab

version 2
version 2

Whole song

Interactive

23,064 views 6 this week
6 commentsread comments
1 2 3 4 5
x 3
add to favorites
×
Save as Personal and add changes to this tab that will be seen only by you. Learn more ›
×
You can save this tab as Personal to edit and correct it or add notes. All changes will be seen only by you. Learn more »
launch autoscroll
font size
0
reset
how to read this tab
guitar tuner
edit
Autoscroll
slow
fast
+/-
esc
set tempo
stop
Hey guys its MYxNAME here with the song
"Same Thing We Do Everyday Pinky"
by
Broadway
I think this is pretty much right but if you have any suggestions email them to me
and i get to it as soon as possible
btw if its not finished ill finish it later it takes forever to make these.

Tuning: C# G# C# F# A# D#

Intro:
--------4~----4~-------------------------------------------------|
--9~----5~----5~--7~----7/9~----9~-10~---10\9~----9\7~----7/9~---|
--9~----4~----4~--7~----7/9~----9~--9~----9\9~----9\7~----7/9~---|
--7~----6~----6~--7~----7/9~----9~--7~----7\7~----7\7~----7/9~---|
--9~----7~----7~--5~----5/7~----7~--9~----9\7~----7\5~----5/7~---|
-----------------------------------------------------------------|

Verse1:

Guitar1 x4   Guitar2 x2
--------------------------------------------------------------------|
--------------------------------------------------------------------|
------------let-Ring------------------------------------------------|
--------------2----------------2---------------2---------------2----|
--4-4444444-6---6--4-4444444-6---6-2-2222222-6---6-0-0000000-6---6--|
--4-4444444--------4-4444444-------2-2222222-------0-0000000--------|
  . .......        . .......       . .......       . .......
-------------------------------------|
-------------------------------------|
---111111-131313-9999---9---9---9----|
----x-x-x--x-x-x-xxxx---x---x---x----|
----9-9-9-111111-7777---7---7---7----|
-------------------------------------|


Guitar2 x6                 | At the end of each measure (Do all this twice)
--------------12-----------|-----------------------------------------------|
--------10-------10--------|-----------------------------------------------|
--13-13----13--------------|-111111-131313-9999---9---9---9----------------|
---------------------------|--x-x-x--x-x-x-xxxx---x---x---x----------------|
--Let-It-Ring--------------|--9-9-9-111111-7777---7---7---7----------------|
---------------------------|-----------------------------------------------|

Both Guitars At the end of Verse1
----------------------------------|
----------------------------------|
-1616161616161616161616161616-----|
-1818181818181818181818181818-----|
-1414141414141414141414141414-----|
----------------------------------|

Chorus:

Guitar1 x2
-------------------------------------------------------------------|
--10101010101010101010-99999/1212121212-5/7-7777--999999-7/9-9999--|
---9-9-9-9-9-9-9-9-9-9-99999/-9-9-9-9-9-6/7-7777--999999-7/9-9999--|
---7-7-7-7-7-7-7-7-7-7-77777/-9-9-9-9-9-6/7-7777--999999-7/9-9999--|
---9-9-9-9-9-9-9-9-9-9-77777/1111111111-4/5-5555--777777-5/7-7777--|
-------------------------------------------------------------------|

-----------------|
-10101010101010--|
--9-9-9-9-9-9-9--|
--9-9-9-9-9-9-9--|
-11111111111111--|
-----------------|

Guitar2 x2
----------------------------------------------------------------------------|
--10------10------10------10------10------10-------9-------9-------9--------|
-----9-------9-------9-------9-------9-------9-------9-------9-------9------|
-------11------11--------------11------11--------------11------11-----------|
----------------------------------------------------------------------------|
----------------------------------------------------------------------------|

---------------------------------------------------------------------|
--12------12------12-----5/7-7777--999999-7/9-9999---10101010101010--|
-----9-------9-------9---6/7-7777--999999-7/9-9999----9-9-9-9-9-9-9--|
-------11------11--------6/7-7777--999999-7/9-9999----9-9-9-9-9-9-9--|
-------------------------4/5-5555--777777-5/7-7777---11111111111111--|
---------------------------------------------------------------------|

Verse2:

Both Guitars x4
------------------------------77777777--------------------|
-------1010101010101010101010-99999999-1212121212121212---|
--------9-9-9-9-9-9-9-9-9-9-9-99999999--9-9-9-9-9-9-9-9---|
--4444--7-7-7-7-7-7-7-7-7-7-7-77777777--9-9-9-9-9-9-9-9---|
--4444--9-9-9-9-9-9-9-9-9-9-9-77777777-1111111111111111---|
--4444----------------------------------------------------|

Verse2 Part 2
--------------------------------------------|
--------------------------------------------|
--11~--13~--141414141414141414141414141414--|
--12~--14~--161616161616161616161616161616--|
---9~--11~--121212121212121212121212121212--|
--------------------------------------------|

---------------------------------------------|
-11111111-11-11-11-1111111111----14~-----13~-|
-12121212-12-12-12-1212121212----16~-----14~-|
--9-9-9-9--9--9--9--9-9-9-9-9----12~-----11~-|
---------------------------------------------|

Chorus

Bridge:
Both Guitars
----------------------------5~--4~--|
------------------------------------|
------------7~--6~--4~--6~----------|
------4~----4~--4~--4~--4~--4~--4~--|
------4~----4~--4~--4~--4~--4~--4~--|
------4~----4~--4~--4~--4~--4~--4~--|

Bridge part2
Both Guitars x4
-----xxxx-----xxxxxxxx----|
-----xxxx-----xxxxxxxx----|
-----xxxx-----xxxxxxxx----|
--4--xxxx--4--xxxxxxxx----|
--4--xxxx--4--xxxxxxxx----|
--4--xxxx--4--xxxxxxxx----|

Bridge Part 3: Guitar1 x3 Guitar2 x1
--------------------------------------------------------------|
--------------------------------------------------------------|
--------------------------------------------------------------|
-44444--44444444--444--44444\--22222--22222222--222--22222\---|
-44444--44444444--444--44444\--22222--22222222--222--22222\---|
-44444--44444444--444--44444\--22222--22222222--222--22222\---|

   Note:Do that last chord the 1st time only
-----------------------------------------------|---------|
-----------------------------------------------|---------|
-----------------------------------------------|---------|
-00000--00000000--000--00000~--00000--0000000~-|---4~----|
-00000--00000000--000--00000~--00000--0000000~-|---4~-5*-|
-00000--00000000--000--00000~--00000--0000000~-|---4~----|

Guitar2 x8 do this at the end off the first part|End With This
---------------12-------------------12----------|--------------12~-----|
---------10-------10-----------10-------10------|--------10~-----------|
---13-13----13--------13-13-13----13-------13---|--13~-----------------|
------------------------------------------------|----------------------|
--Let-It-Ring-----------------------------------|----------------------|
------------------------------------------------|----------------------|

Breakdown
Guitar1 Clean
------------------------------------------------------------|
-10101010-1010-101010\9999-99-999\7777-77-777-7777-77/999---|
--9-9-9-9--9-9--9-9-9\9999-99-999\7777-77-777-7777-77/999---|
--7-7-7-7--7-7--7-7-7\7777-77-777\7777-77-777-7777-77/777---|
--9-9-9-9--9-9--9-9-9\7777-77-777\5555-55-555-5555-55/777---|
------------------------------------------------------------|

------------------------------------------------------------|
-10101010-1010-101010\9999-99-999\7777-77-777-9~------------|
--9-9-9-9--9-9--9-9-9\9999-99-999\7777-77-777-9~------------|
--7-7-7-7--7-7--7-7-7\7777-77-777\7777-77-777-9~------------|
--9-9-9-9--9-9--9-9-9\7777-77-777\5555-55-555-7~------------|
------------------------------------------------------------|

Outro:

Guitar1 x2
-------------------------------------------------------------------|
--10101010101010101010-99999/1212121212-5/7-7777--999999-7/9-9999--|
---9-9-9-9-9-9-9-9-9-9-99999/-9-9-9-9-9-6/7-7777--999999-7/9-9999--|
---7-7-7-7-7-7-7-7-7-7-77777/-9-9-9-9-9-6/7-7777--999999-7/9-9999--|
---9-9-9-9-9-9-9-9-9-9-77777/1111111111-4/5-5555--777777-5/7-7777--|
-------------------------------------------------------------------|

-----------------| at the second time, stop at the second to last
-10101010101010--| chord
--9-9-9-9-9-9-9--|
--9-9-9-9-9-9-9--|
-11111111111111--|
-----------------|


Guitar2 x2
----------------------------------------------------------------------------|
--10------10------10------10------10------10-------9-------9-------9--------|
-----9-------9-------9-------9-------9-------9-------9-------9-------9------|
-------11------11--------------11------11--------------11------11-----------|
----------------------------------------------------------------------------|
----------------------------------------------------------------------------|

---------------------------------------------------------------------|
--12------12------12-----5/7-7777--999999-7/9-9999---10101010101010--|
-----9-------9-------9---6/7-7777--999999-7/9-9999----9-9-9-9-9-9-9--|
-------11------11--------6/7-7777--999999-7/9-9999----9-9-9-9-9-9-9--|
-------------------------4/5-5555--777777-5/7-7777---11111111111111--|
---------------------------------------------------------------------|

At the second time, stop at the second to last chord

End on
--------|
--------|
--6~----|
--4~----|
--4~----|
--4~----|

            
            
Suggest correction
Creating personal tab
Creating personal tab
You can edit any tab online and save it as your Personal.

You can edit, replace or remove any tab part or add personal notes – all changes will be seen only by you.

Personal tabs can be accessed anytime from any device, even offline.
Learn more »
Give kudos to tab author, rate the tab!
1 2 3 4 5
comments
print report bad tab
6 comments total. Showing first comments.
+1 reply
MYxNAME 31 Mar 19, 2010 07:33 AM

yeah! its finally on here!!!!

0 reply
LettersToJuleit 31 May 08, 2010 10:00 AM

You should try to tab out, The Prom Queen has no friends. I made a version but idk if its that correct.

+1 reply
spartanmay 10 Jul 18, 2010 10:24 PM

the intro is just a tad off.

--------------------------------------------------------------------|
--------------------------------------------------------------------|
------------let-Ring------------------------------------------------|
--------------2----------------2---------------2---------------2----|
--4-4444444-6---6--4-4444444-6---6-2-2222222-6---6-0-0000000-6---6--|
--4-4444444--------4-4444444-------2-2222222-------0-0000000--------|
. ....... . ....... . ....... . .......

should be played like this.
----------------------------------------------------------------------|
----------------------------------------------------------------------|
---------------2----------------2-----------------2---------------2---|
-------------6---6------------6---6-------------6---6-----------6---6-|
--4-4444444--------4-4444444---------2-2222222--------0-0000000-------|
--4-4444444--------4-4444444---------2-2222222--------0-0000000-------|
. ....... . ....... . ....... . .......

other than that ... it looks awesome

guest
You may want to rate the tab now too:
select rating
Wanna post a correction for this tab? Suggest correction