Oops, an error
Loading. Please wait.

Basement Royalty Tab

822 views 3 this week
no commentswrite comment
1 2 3 4 5
please rate
add to favorites
launch autoscroll
font size
0
reset
how to read this tab
guitar tuner
Autoscroll
slow
fast
+/-
esc
set tempo
stop
Help us to improve Ultimate-Guitar.com Take our survey!
×
Author
Difficulty
Tuning
crash5 136
intermediate
D# G# C# F# A# D#
Basement Royalty - Broadway Calls

Tune 1/2 step down!

Chords:
     B   E   F#  G#
e|--------------------|
B|--------------------|
G|---4----------------|
D|---4---2---4---6----|
A|---2---2---4---6----|
E|-------0---2---4----|


Vers:
                B                     E
I'm dragging my pen in a line on the page.
              B                         F#                    B
Snow covered rooftops, and broken down stages are filling my head.
                        E                        B
Can I please fill your heart with last summer's breakdown,
                   F#
and this winter's false start?
            B                    E
Closing my eyes and dragging my feet.
                 B                             F#
I'm praying for rainstorms and earthquakes nightly.
                B                         E
What little remains? Three years I have changed.
                  B                        F#
How boring would life be if we all stayed the same?

Fill:
e|--------------------|
B|--------------------|
G|--------------------|
D|---6---4---2---4----|
A|---6---4---2---4----|
E|---4---2---0---2----|

Chorus:

e|-------------------------------------------------------------------|
B|-------------------------------------------------------------------|
G|--4----------------------------------------------------------------|
D|--4------------------------------x-x-x-2--x-x-x-4---6--4--2--4-----|
A|--2---Drums Only-----------------x-x-x-2--x-x-x-4---6--4--2--4-----|
E|---------------------------------x-x-x-0--x-x-x-2---4--2--0--2-----|
   Give me a touch! Give me sensation of any  thing!


e|-----------------------------------------------------------------------|
B|-----------------------------------------------------------------------|
G|--4--------------------------------------------------------------------|
D|--4-------------------------------------x-x-x-2--x-x-x-4---6--4--2--4--|
A|--2---Drums and Bass Only---------------x-x-x-2--x-x-x-4---6--4--2--4--|
E|----------------------------------------x-x-x-0--x-x-x-2---4--2--0--2--|
   Hail to the Kings and the Queens of basement ro  yal ty!

e|-----------------------------------------------------|
B|-----------------------------------------------------|
G|-----------------------------------------------------|
D|-6---4---2-----6---4----x-x-x---6---4---2-----6---4--|
A|-6---4---2-----6---4----x-x-x---6---4---2-----6---4--|
E|-4---2---0-----4---2----x-x-x---4---2---0-----4---2--|


Vers:

 F#    F#   E   B                       E
Let's roll our sleeves and taunt our defeat.
               B                      F#
Something to battle, and sink in our teeth.
                 B                        E
When victory is yours, you will feel the heat.
                         B                           F#
Like that last night in August, when we ditched the party.
             B                   E
Water won't work on nights like this.
         B              F#               B                  E
We need celebration liquids. Sweat, and wine, and toxic fluids.
             B                   F#
Water won't work on nights like this.

Fill:
e|--------------------|
B|--------------------|
G|--------------------|
D|---6---4---2---4----|
A|---6---4---2---4----|
E|---4---2---0---2----|


Chorus:

e|-------------------------------------------------------------------|
B|-------------------------------------------------------------------|
G|--4----------------------------------------------------------------|
D|--4------------------------------x-x-x-2--x-x-x-4---6--4--2--4-----|
A|--2---Drums Only-----------------x-x-x-2--x-x-x-4---6--4--2--4-----|
E|---------------------------------x-x-x-0--x-x-x-2---4--2--0--2-----|
   Give me a touch! Give me sensation of any  thing!


e|-----------------------------------------------------------------------|
B|-----------------------------------------------------------------------|
G|--4--------------------------------------------------------------------|
D|--4-------------------------------------x-x-x-2--x-x-x-4---6--4--2--4--|
A|--2---Drums and Bass Only---------------x-x-x-2--x-x-x-4---6--4--2--4--|
E|----------------------------------------x-x-x-0--x-x-x-2---4--2--0--2--|
   Hail to the Kings and the Queens of basement ro  yal ty!


e|------------------------------------------------------------------|
B|------------------------------------------------------------------|
G|--4--4--4--4--4--4--4--4--4--4--4--4------------------------------|
D|--4--4--4--4--4--4--4--4--4--4--4--4----2--2--2--2--4--4--4--4----|
A|--2--2--2--2--2--2--2--2--2--2--2--2----2--2--2--2--4--4--4--4----|
E|----------------------------------------0--0--0--0--2--2--2--2----|
   Give me a touch! Give me sensation of  a   ny  thing!

e|----------------------------------------------------------------|
B|----------------------------------------------------------------|
G|--4--4--4--4--4--4--4--4--4--4--4--4--4--4----------------------|
D|--4--4--4--4--4--4--4--4--4--4--4--4--4--4----2--2--2--2--4--4--|
A|--2--2--2--2--2--2--2--2--2--2--2--2--2--2----2--2--2--2--4--4--|
E|----------------------------------------------0--0--0--0--2--2--|
   Hail to the Kings and the Queens of basement ro   yal  ty!


e|----------------------------------------------|
B|----------------------------------------------|
G|----------------------------------------------|
D|---6---4---2---4---6-----4---2-----6---4------|
A|---6---4---2---4---6-----4---2-----6---4------|
E|---4---2---0---2---4-----2---0-----4---2------|
                   >----repeat-4-times----------|
                         (Wohoohoo)

Vers:

                B                     E
I'm dragging my pen in a line on the page.
              B                         F#                    B
Snow covered rooftops, and broken down stages are filling my head.
                        E                        B
Can I please fill your heart with last summer's breakdown,
                   F#
and this winter's false start?


Chorus:(2x)

e|------------------------------------------------------------------|
B|------------------------------------------------------------------|
G|--4--4--4--4--4--4--4--4--4--4--4--4------------------------------|
D|--4--4--4--4--4--4--4--4--4--4--4--4----2--2--2--2--4--4--4--4----|
A|--2--2--2--2--2--2--2--2--2--2--2--2----2--2--2--2--4--4--4--4----|
E|----------------------------------------0--0--0--0--2--2--2--2----|
   Give me a touch! Give me sensation of  a   ny  thing!

e|----------------------------------------------------------------|
B|----------------------------------------------------------------|
G|--4--4--4--4--4--4--4--4--4--4--4--4--4--4----------------------|
D|--4--4--4--4--4--4--4--4--4--4--4--4--4--4----2--2--2--2--4--4--|
A|--2--2--2--2--2--2--2--2--2--2--2--2--2--2----2--2--2--2--4--4--|
E|----------------------------------------------0--0--0--0--2--2--|
   Hail to the Kings and the Queens of basement ro   yal  ty!


Ending:

e|---------------------------------------------|
B|---------------------------------------------|
G|---------------------------------------------|
D|---6---4---2---4---6-----4---2-----6---4-----|
A|---6---4---2---4---6-----4---2-----6---4-----|
E|---4---2---0---2---4-----2---0-----4---2-----|
Suggest correction new What's this?
You can suggest a correction to this tab. Community and Mods will review your correction and vote to approve or reject it.
comments
We did not receive enough feedback on this tab! Please rate:
print report bad tab
1 2 3 4 5
guest
You may want to rate the tab now too:
select rating
Please do not post tabs as comments. Select "correction" instead!