Oops, an error
Loading. Please wait.

Be All That You Cant Be Tab

version 1
version 1

Whole song

Interactive

627 views 1 this week
no commentswrite comment
1 2 3 4 5
please rate
add to favorites
launch autoscroll
font size
0
reset
how to read this tab
guitar tuner
Tab Pro tools
  • play this tab
  • loop segment
  • change instrument
  • show fretboard
  • metronome
Autoscroll
slow
fast
+/-
esc
set tempo
stop
Contributor
Difficulty
novice
Artist: Broadway Calls
Song: Be All That You Can't Be
Tabbed By: Chris Norkett
Email: c_norkett@hotmail.com 

Tuning: Standard(E A D G B E)

Symbol Guide
s  = slide
p  = pull off
PM = palm muted


  Intro        Bridge
E|------------|----------|
B|------------|----------|
G|--3--x16----|--3--x16--|
D|--1---------|--1-------|
A|------------|----------|
E|------------|----------|
    PM....................                   


  Verse
E|---------------------|
B|---------------------|
G|--3-x16--3-----------| x4
D|--1------3-x8--6-----|
A|---------1-----6-x8--|
E|---------------4-----|
    PM..................


  Riff 1(0:36)
E|------------|
B|------------|
G|------------|
D|-----1p0-3--|
A|-1-3--------|
E|------------|



  Chorus
E|-----------------------------------------|
B|--4444------------------------4444-------|
G|--3333------33333333----------3333-3333--| x2
D|--1111-6666-33333333-66666666-1111-3333--|
A|-------6666-11111111-66666666------1111--|
E|-------4444----------44444444------------|



  Bridge
E|------------|
B|------------|
G|--3--x16----|
D|--1---------|
A|------------|
E|------------|
    PM.........


  Verse
E|---------------------|
B|---------------------|
G|--3-x16--3-----------| x2
D|--1------3-x8--6-----|
A|---------1-----6-x8--|
E|---------------4-----|
    PM..................


  Riff 2(1:30)
E|------------------------------------------------------|
B|------------------------------------------------------|
G|-------0-----------------------------0----------------|
D|---3-1---3-3p1------1---1--------3-1---3-3p1------1~--|
A|-1--------------1-3---3---3p1--1--------------1-3-----|
E|------------------------------------------------------|
  Don't hold the notes, pick each note then let go


  Chorus
E|-----------------------------------------|
B|--4444------------------------4444-------|
G|--3333------33333333----------3333-3333--| x2
D|--1111-6666-33333333-66666666-1111-3333--|
A|-------6666-11111111-66666666------1111--|
E|-------4444----------44444444------------|



  Bridge 2
E|-----------------------------------|
B|--4--------------------------------|
G|--3----7----5----3~~--3-11111111~--|
D|--1----7----5----3~~---------------|
A|-------5----3----1~~---------------|
E|-----------------------------------|



  Outro
E|--------------------------|    |-----------------|
B|--6666--------------------|    |--6666-----------|
G|--5555--3333--5555--3333--| x3 |--5555--3333--5--|
D|--3333--3333--5555--3333--|    |--3333--3333--5--|
A|--------1111--3333--1111--|    |--------1111--3--|
E|--------------------------|    |-----------------|


E|-------------------|
B|--6666-------------|
G|--5555--3333--5~~--| 
D|--3333--3333--5~~--|
A|--------1111--3~~--|
E|-------------------|



  Riff 3(2:39)                           End with
E|--------------------------------|     |-------|
B|--------------------------------|     |-------|
G|-------3p0-------3p0------------| x2  |-------|
D|-3----------2s3--------2s3------|     |--3~~--|
A|---3-1---------------------3-1--|     |--3~~--|
E|--------------------------------|     |--1~~--|


Intro  x 1
Bridge x 1
Verse  x 4
Riff 1 x 1
Chorus x 2
Bridge x 1
Verse  x 2
Riff 2 x 1
Chorus x 2
Bridge x 1
Outro  x 1
Riff 3 x 1


comments
We did not receive enough feedback on this tab! Please rate:
print report bad tab
1 2 3 4 5
I want to post or [tab]
guest
You may want to rate the tab now too:
select rating
Please do not post tabs as comments. Select "correction" instead!