Oops, an error
Loading. Please wait.

Call It Off Tab

version 1
version 1

Whole song

Interactive

5,320 views 3 this week
2 commentsread comments
1 2 3 4 5
x 4
add to favorites
launch autoscroll
font size
0
reset
how to read this tab
guitar tuner
Autoscroll
slow
fast
+/-
esc
set tempo
stop
Help us to improve Ultimate-Guitar.com Take our survey!
×
Author
Difficulty
novice
Broadway Calls
Adeline Records
http://www.broadwaycalls.com/
http://www.myspace.com/broadwaycalls

--
This band is awesome and this song freakin rocks!

the 's' in the intro means slide ..
i dont know the proper letters n stuff, i dont usually write tabs so hopefully
you understand this.

Two things i wanna point out:

The intro (has 4 parts).. in the 3rd part where you see

-----------|
-----------|
--14-------|
-----12-12-|
-----------|
-----------| i think you bend the 12 a bit or (upstroke/downstroke)

anyway play around and you'll get it ..

Second thing is in the Bridge (guitar 2) you can play the chorus in chords but i like 
power chords so i just wrote those instead.

thats it ..

enjoy !

--
Intro:

|-----------------------|
|-----------------------|
|--11s12s11----14----14-|
|-----------12----12----|
|-----------------------|
|-----------------------| (x3)

--------------------------|
--------------------------|
--12-11-------------------|
--------12--14--12--------|
--------------------14--12|
--------------------------|

|----------------------------------------------------|
|----------------------------------------------------|
|--11s12s11-----14-------14-------14-------14--------|
|-----------12-----12-12----12-12----12-12----12-12--|
|----------------------------------------------------|
|----------------------------------------------------| (x3)

-------------------------------|
-------------------------------|
--12-11------------------------|
--------12--14--12----------12-|
--------------------14--12-----|
-------------------------------|

Verse:

|---------|
|---------|
|-------7-|
|--7-7--7-|
|--7-7--5-|
|--5-5----|
   *

|-------------------------------------------------------------------|
|-------------------------------------------------------------------|
|--7-7-7-7-7-7-7-7-7-7-7-7-7-7-7-7----------------------------------|
|--7-7-7-7-7-7-7-7-7-7-7-7-7-7-7-7--7-7-7-7-7-7-7-7-7-7-7-7-7-7-7-7-|
|--5-5-5-5-5-5-5-5-5-5-5-5-5-5-5-5--7-7-7-7-7-7-7-7-7-7-7-7-7-7-7-7-|
|-----------------------------------5-5-5-5-5-5-5-5-5-5-5-5-5-5-5-5-|
   * * * * * * * * * * * * * * * * * * * * * * * * * * * * * * * * *

|--------------------------------------------------------------------|
|--------------------------------------------------------------------|
|--------------------------------------------------------------------|
|--9-9-9-9-9-9-9-9-9-9-9-9-9-9-9-9--8-8-8-8-8-8-8-8-8-8-8-8-8-8-8-8--|
|--9-9-9-9-9-9-9-9-9-9-9-9-9-9-9-9--8-8-8-8-8-8-8-8-8-8-8-8-8-8-8-8--|
|--7-7-7-7-7-7-7-7-7-7-7-7-7-7-7-7--6-6-6-6-6-6-6-6-6-6-6-6-6-6-6-6--|

------------------------------------------------------|
------------------------------------------------------|
-----------------------------------x-x--x-x--x-x--x-x-|
--7-7-7-7-7-7-7-7-7-7-7-7-7-7-7-7--x-x--x-x--x-x--x-x-|
--7-7-7-7-7-7-7-7-7-7-7-7-7-7-7-7--x-x--x-x--x-x--x-x-|
--5-5-5-5-5-5-5-5-5-5-5-5-5-5-5-5--x-x--x-x--x-x--x-x-|


|----------------------------------------------------------------------|
|----------------------------------------------------------------------|
|--7--7-7-7-7-7-7-7-7-7-7-7-7-7-7-7-7----------------------------------|
|--7--7-7-7-7-7-7-7-7-7-7-7-7-7-7-7-7--7-7-7-7-7-7-7-7-7-7-7-7-7-7-7-7-|
|--5--5-5-5-5-5-5-5-5-5-5-5-5-5-5-5-5--7-7-7-7-7-7-7-7-7-7-7-7-7-7-7-7-|
|--------------------------------------5-5-5-5-5-5-5-5-5-5-5-5-5-5-5-5-|
      * * * * * * * * * * * * * * * * * * * * * * * * * * * * * * * * *

|--------------------------------------------------------------------|
|--------------------------------------------------------------------|
|--4-4-4-4-4-4-4-4-4-4-4-4-4-4-4-4--3-3-3-3-3-3-3-3-3-3-3-3-3-3-3-3--|
|--4-4-4-4-4-4-4-4-4-4-4-4-4-4-4-4--3-3-3-3-3-3-3-3-3-3-3-3-3-3-3-3--|
|--2-2-2-2-2-2-2-2-2-2-2-2-2-2-2-2--1-1-1-1-1-1-1-1-1-1-1-1-1-1-1-1--|
|--------------------------------------------------------------------|

------------------------------------------------------|
------------------------------------------------------|
------------------------------------------------------|
--7-7-7-7-7-7-7-7-7-7-7-7-7-7-7-7-7-7-7-7-7-7-7-7-7-7-|
--7-7-7-7-7-7-7-7-7-7-7-7-7-7-7-7-7-7-7-7-7-7-7-7-7-7-|
--5-5-5-5-5-5-5-5-5-5-5-5-5-5-5-5-5-5-5-5-5-5-5-5-5-5-|

you can change the (x244xx) and (x133xx) to (799xxx) (688xxx)

thats easier, but of you listen to the background you can hear
how the tone changes the second time he sings the verse.


chorus:

|-------------------------------------------------------------------|
|-------------------------------------------------------------------|
|--7-7-7-7-7-7-7-7-7-7-7-7-7-7-7-7----------------------------------|
|--7-7-7-7-7-7-7-7-7-7-7-7-7-7-7-7--7-7-7-7-7-7-7-7-7-7-7-7-7-7-7-7-|
|--5-5-5-5-5-5-5-5-5-5-5-5-5-5-5-5--7-7-7-7-7-7-7-7-7-7-7-7-7-7-7-7-|
|-----------------------------------5-5-5-5-5-5-5-5-5-5-5-5-5-5-5-5-|

 ------------------------------------------------------------------|
 ------------------------------------------------------------------|
 ------------------------------------------------------------------|
 -----------------------------------5-5-5-5-5-5-5-5-5-5-5-5-5-5-5-5|
 --5-5-5-5-5-5-5-5-5-5-5-5-5-5-5-5--5-5-5-5-5-5-5-5-5-5-5-5-5-5-5-5|
 --2-2-2-2-2-2-2-2-2-2-2-2-2-2-2-2--3-3-3-3-3-3-3-3-3-3-3-3-3-3-3-3| (x2)

|-----------------------------|
|-----------------------------|
|-----------------------------|
|---------------5-------------|
|--5------------5-------------|
|--2-(let ring)-3---(let ring)|

verse:

|-----|
|-----|
|--7--|
|--7--|
|--5--|
|-----|

|-------------------------------------------------------------------|
|-------------------------------------------------------------------|
|--7-7-7-7-7-7-7-7-7-7-7-7-7-7-7-7----------------------------------|
|--7-7-7-7-7-7-7-7-7-7-7-7-7-7-7-7--7-7-7-7-7-7-7-7-7-7-7-7-7-7-7-7-|
|--5-5-5-5-5-5-5-5-5-5-5-5-5-5-5-5--7-7-7-7-7-7-7-7-7-7-7-7-7-7-7-7-|
|-----------------------------------5-5-5-5-5-5-5-5-5-5-5-5-5-5-5-5-|
   * * * * * * * * * * * * * * * * * * * * * * * * * * * * * * * * *

|--------------------------------------------------------------------|
|--------------------------------------------------------------------|
|--------------------------------------------------------------------|
|--9-9-9-9-9-9-9-9-9-9-9-9-9-9-9-9--8-8-8-8-8-8-8-8-8-8-8-8-8-8-8-8--|
|--9-9-9-9-9-9-9-9-9-9-9-9-9-9-9-9--8-8-8-8-8-8-8-8-8-8-8-8-8-8-8-8--|
|--7-7-7-7-7-7-7-7-7-7-7-7-7-7-7-7--6-6-6-6-6-6-6-6-6-6-6-6-6-6-6-6--|

------------------------------------------------------|
------------------------------------------------------|
-----------------------------------x-x--x-x--x-x--x-x-|
--7-7-7-7-7-7-7-7-7-7-7-7-7-7-7-7--x-x--x-x--x-x--x-x-|
--7-7-7-7-7-7-7-7-7-7-7-7-7-7-7-7--x-x--x-x--x-x--x-x-|
--5-5-5-5-5-5-5-5-5-5-5-5-5-5-5-5--x-x--x-x--x-x--x-x-|


|----------------------------------------------------------------------|
|----------------------------------------------------------------------|
|--7--7-7-7-7-7-7-7-7-7-7-7-7-7-7-7-7----------------------------------|
|--7--7-7-7-7-7-7-7-7-7-7-7-7-7-7-7-7--7-7-7-7-7-7-7-7-7-7-7-7-7-7-7-7-|
|--5--5-5-5-5-5-5-5-5-5-5-5-5-5-5-5-5--7-7-7-7-7-7-7-7-7-7-7-7-7-7-7-7-|
|--------------------------------------5-5-5-5-5-5-5-5-5-5-5-5-5-5-5-5-|
      * * * * * * * * * * * * * * * * * * * * * * * * * * * * * * * * *

|--------------------------------------------------------------------|
|--------------------------------------------------------------------|
|--4-4-4-4-4-4-4-4-4-4-4-4-4-4-4-4--3-3-3-3-3-3-3-3-3-3-3-3-3-3-3-3--|
|--4-4-4-4-4-4-4-4-4-4-4-4-4-4-4-4--3-3-3-3-3-3-3-3-3-3-3-3-3-3-3-3--|
|--2-2-2-2-2-2-2-2-2-2-2-2-2-2-2-2--1-1-1-1-1-1-1-1-1-1-1-1-1-1-1-1--|
|--------------------------------------------------------------------|

------------------------------------------------------|
------------------------------------------------------|
------------------------------------------------------|
--7-7-7-7-7-7-7-7-7-7-7-7-7-7-7-7-7-7-7-7-7-7-7-7-7-7-|
--7-7-7-7-7-7-7-7-7-7-7-7-7-7-7-7-7-7-7-7-7-7-7-7-7-7-|
--5-5-5-5-5-5-5-5-5-5-5-5-5-5-5-5-5-5-5-5-5-5-5-5-5-5-|


chorus:

|-------------------------------------------------------------------|
|-------------------------------------------------------------------|
|--7-7-7-7-7-7-7-7-7-7-7-7-7-7-7-7----------------------------------|
|--7-7-7-7-7-7-7-7-7-7-7-7-7-7-7-7--7-7-7-7-7-7-7-7-7-7-7-7-7-7-7-7-|
|--5-5-5-5-5-5-5-5-5-5-5-5-5-5-5-5--7-7-7-7-7-7-7-7-7-7-7-7-7-7-7-7-|
|-----------------------------------5-5-5-5-5-5-5-5-5-5-5-5-5-5-5-5-|

 ------------------------------------------------------------------|
 ------------------------------------------------------------------|
 ------------------------------------------------------------------|
 -----------------------------------5-5-5-5-5-5-5-5-5-5-5-5-5-5-5-5|
 --5-5-5-5-5-5-5-5-5-5-5-5-5-5-5-5--5-5-5-5-5-5-5-5-5-5-5-5-5-5-5-5|
 --2-2-2-2-2-2-2-2-2-2-2-2-2-2-2-2--3-3-3-3-3-3-3-3-3-3-3-3-3-3-3-3| (x2)

|-----------------------------|
|-----------------------------|
|-----------------------------|
|---------------5-------------|
|--5------------5-------------|
|--2-(let ring)-3---(let ring)| (x2)

|------------------|
|------------------|
|------------------|
|------------------|
|--5-5-5-5-5-5-5-5-|
|--5-5-5-5-5-5-5-5-|
|--3-3-3-3-3-3-3-3-|

Interlude:

|---------------------------------------------------------------------------------|
|---------------------------------------------------------------------------------|
|--4-4-4--4-4-4--4-4-4---2-2-2--2-2-2--2-2-2---4-4-4--4-4-4--4-4-4---2-2-2--2-2-2-|
|--4-4-4--4-4-4--4-4-4---2-2-2--2-2-2--2-2-2---4-4-4--4-4-4--4-4-4---2-2-2--2-2-2-|
|--2-2-2--2-2-2--2-2-2---0-0-0--0-0-0--0-0-0---2-2-2--2-2-2--2-2-2---0-0-0--0-0-0-|
|---------------------------------------------------------------------------------|

solo:

|----------------------------------------------------|
|----------------------------------------------------|
|------------2-2---------------------------2-2-------|
|-------4-4-------4-4---------------4-4---------4-4--|
|--2-2-------------------------0-0-------------------|
|-----------------------(x2)-------------------------| (x2)

|------------------------------------------------------------|
|------------------------------------------------------------|
|------------2-2-------------2-2-2-2-2-2-2-2-2-2-2-2-2-2-2-2-|
|-------4-4-------4-4--------2-2-2-2-2-2-2-2-2-2-2-2-2-2-2-2-|
|--2-2-----------------------0-0-0-0-0-0-0-0-0-0-0-0-0-0-0-0-|
|-----------------------(x2)---------------------------------|


Bridge:

Guitar 1: (distorted)

|-----
|-----
|--7--
|--7--
|--5--(letring)
|-----

Guitar 2: (clean)

|-------------------------------------------------------------------|
|-------------------------------------------------------------------|
|--7-7-7-7-7-7-7-7-7-7-7-7-7-7-7-7----------------------------------|
|--7-7-7-7-7-7-7-7-7-7-7-7-7-7-7-7--7-7-7-7-7-7-7-7-7-7-7-7-7-7-7-7-|
|--5-5-5-5-5-5-5-5-5-5-5-5-5-5-5-5--7-7-7-7-7-7-7-7-7-7-7-7-7-7-7-7-|
|-----------------------------------5-5-5-5-5-5-5-5-5-5-5-5-5-5-5-5-|

 ------------------------------------------------------------------|
 ------------------------------------------------------------------|
 ------------------------------------------------------------------|
 -----------------------------------5-5-5-5-5-5-5-5-5-5-5-5-5-5-5-5|
 --5-5-5-5-5-5-5-5-5-5-5-5-5-5-5-5--5-5-5-5-5-5-5-5-5-5-5-5-5-5-5-5|
 --2-2-2-2-2-2-2-2-2-2-2-2-2-2-2-2--3-3-3-3-3-3-3-3-3-3-3-3-3-3-3-3|


Guitar 1:

|-x-x-x-x-x-x-x-x-x-|
|-x-x-x-x-x-x-x-x-x-|
|-x-x-x-x-x-x-x-x-x-|
|-x-x-x-x-x-x-x-x-x-|
|-x-x-x-x-x-x-x-x-x-|
|-x-x-x-x-x-x-x-x-x-|

chorus:

|-------------------------------------------------------------------|
|-------------------------------------------------------------------|
|--7-7-7-7-7-7-7-7-7-7-7-7-7-7-7-7----------------------------------|
|--7-7-7-7-7-7-7-7-7-7-7-7-7-7-7-7--7-7-7-7-7-7-7-7-7-7-7-7-7-7-7-7-|
|--5-5-5-5-5-5-5-5-5-5-5-5-5-5-5-5--7-7-7-7-7-7-7-7-7-7-7-7-7-7-7-7-|
|-----------------------------------5-5-5-5-5-5-5-5-5-5-5-5-5-5-5-5-|

 ------------------------------------------------------------------|
 ------------------------------------------------------------------|
 ------------------------------------------------------------------|
 -----------------------------------5-5-5-5-5-5-5-5-5-5-5-5-5-5-5-5|
 --5-5-5-5-5-5-5-5-5-5-5-5-5-5-5-5--5-5-5-5-5-5-5-5-5-5-5-5-5-5-5-5|
 --2-2-2-2-2-2-2-2-2-2-2-2-2-2-2-2--3-3-3-3-3-3-3-3-3-3-3-3-3-3-3-3| (x3)


|-----------------------------|
|-----------------------------|
|-----------------------------|
|---------------5-------------|
|--5------------5-------------|
|--2-(let ring)-3---(let ring)|
Suggest correction
comments
print report bad tab
2 comments total.
+1 reply
greenday2003 837 Jul 10, 2008 08:59 AM

great tab..sounds good to me

0 reply
Blnkone82rulz 238 Jun 15, 2009 08:47 PM

not that it is a big deal but in the chorus the last 2 chords arent played like that they are played like this.
A--5-5-5-5-5--5-5-5-5-5
E-2---2---2--3---3---3

guest
You may want to rate the tab now too:
select rating
Wanna post a correction for this tab? Suggest correction