Oops, an error
Loading. Please wait.

Cry Of The Banshee bass

version 2
version 2

Whole song

Interactive

4,339 views 3 this week
1 commentread comment
1 2 3 4 5
2 more votes to show rating
add to favorites
×
Save as Personal and add changes to this tab that will be seen only by you. Learn more ›
×
You can save this tab as Personal to edit and correct it or add notes. All changes will be seen only by you. Learn more »
launch autoscroll
font size
0
reset
guitar tuner
edit
Autoscroll
slow
fast
+/-
esc
set tempo
stop
Author
Brocas Helm
Cry Of The Banshee (Bass)
Album: Defender Of The Crown
Tabbed by Harris (aka Me...) using powertab

Had this tabbed for a long time but slightly unfinished... thought I'd 
upload it since it's in standard tuning (Brocas Helm play in standard!)! 
Tried to get it as close as possible, there are different variations of the 
verse/chorus parts, just play chords or pick more to figure it out/get it 
sounding cool!!!
- Harris

============================================================

+ STANDARD TUNING +
167 bpm
 4|4

Intro (Tapping section 1)
                       T     T     T     T     T     T     T     T
|------0/===12~~~-||--14p12-15p12-14p12-15p12-14p12-15p12-14p12-14p12s|
|-----------------||o-------------------------------------------------|
|-----------------||o-------------------------------------------------|
|-----------------||--------------------------------------------------|


       T     T     T     T     T     T     T
|-10--14p10-15p10-14p10-15p10-17p10-15p10-14p10s==|
|-------------------------------------------------|
|-------------------------------------------------|
|-------------------------------------------------|

      T    T    T    T    T    T    T
|-8--17p8-15p8-14p8-15p8-14p8-15p8-15p8s|
|---------------------------------------|
|---------------------------------------|
|---------------------------------------|

       T     T     T     T     T     T       T      T     T
|-12--14p12-15p12-14p12-15p12-17p12-19---||-19p=12-19p12-19-(19)---|
|---------------------------------------o||------------------------|
|---------------------------------------o||------------------------|
|----------------------------------------||------------------------|

Tapping section 2 (Main theme)
     T     T     T     T     T     T     T     T
||--19p12-17p12-15p12-17p12-19p12-17p12-15p12-17p12-|
||o-------------------------------------------------|
||o-------------------------------------------------|
||--------------------------------------------------|

   T     T     T     T     T     T     T     T
|-17p10-15p10-14p10-15p10-17p10-15p10-14p10-15p10--|
|--------------------------------------------------|
|--------------------------------------------------|
|--------------------------------------------------|

   T     T     T     T     T     T     T     T
|-19p12-17p12-15p12-17p12-19p12-17p12-15p12-17p12-|
|-------------------------------------------------|
|-------------------------------------------------|
|-------------------------------------------------|

   T     T     T     T     T     T     T     T
|-17p10-15p10-14p10-15p10-17p10-15p10-14p10-15p10-|
|-------------------------------------------------|
|-------------------------------------------------|
|-------------------------------------------------|

   T     T     T     T     T     T     T     T   T
|-15p8-14p8-12p8-14p8-15p8-14p8-12p8-14p8-|-14p===7----|
|-----------------------------------------|------------|
|-----------------------------------------|------------|
|-----------------------------------------|------------|

   T     T     T     T     T     T     T     T
|-15p8-14p8-12p8-14p8-15p8-14p8-12p8-14p8-|-14-----||
|-----------------------------------------|-------o||
|-----------------------------------------|-------o||
|-----------------------------------------|--------||


Verse/Chorus section
||----------------|----------------------|
||o-5----(5)---5--|-3--------------------|
||o-5----(5)---5--|-3--------------------|
||--3----(3)-3----|-1----1-1-1-1-1-1-1-1-|

|---------------|----------------------|
|-5----(5)---5--|-3--------------------|
|-5----(5)---5--|-3--------------------|
|-3----(3)-3----|-1----1-1-1-1-1-1-1-1-|

|-8-------8--|-7-------7--|-8-------8--|-7-------7--|
|-8-------8--|-7-------7--|-8-------8--|-7-------7--|
|-6-------6--|-5-------5--|-6-------6--|-5-------5--|
|------------|------------|------------|------------|

|---------------|----------------------|
|-5----(5)---5--|-3--------------------|
|-5----(5)---5--|-3--------------------|
|-3----(3)-3----|-1----1-1-1-1-1-1-1-1-|

|---------------|----------------------|
|-5----(5)---5--|-3--------------------|
|-5----(5)---5--|-3--------------------|
|-3----(3)-3----|-1----1-1-1-1-1-1-1-1-|

|-8-------8--|-7-------7--|-8-------8--|-7-------7--|
|-8-------8--|-7-------7--|-8-------8--|-7----------|
|-6-------6--|-5-------5--|-6-------6--|-5----------|
|------------|------------|------------|------------|

     T     T     T     T     T     T     T     T
||--14p12-15p12-14p12-15p12-14p12-15p12-14p12-14p12s|
||o-------------------------------------------------|
||o-------------------------------------------------|
||--------------------------------------------------|


       T     T     T     T     T     T     T
|-10--14p10-15p10-14p10-15p10-17p10-15p10-14p10-|
|-----------------------------------------------|
|-----------------------------------------------|
|-----------------------------------------------|

     T    T    T    T    T    T    T
|-8--17p8-15p8-14p8-15p8-14p8-15p8-15p8s|
|---------------------------------------|
|---------------------------------------|
|---------------------------------------|

       T     T     T     T     T     T      4x
|-12--14p12-15p12-14p12-15p12-17p12-19--||--||
|--------------------------------------o||-o||
|--------------------------------------o||-o||
|---------------------------------------||--||

That's pretty much the whole song! Have fun!!!

            
            
Suggest correction
Creating personal tab
Creating personal tab
You can edit any tab online and save it as your Personal.

You can edit, replace or remove any tab part or add personal notes – all changes will be seen only by you.

Personal tabs can be accessed anytime from any device, even offline.
Learn more »
Give kudos to tab author, rate the tab!
1 2 3 4 5
comments
print report bad tab
1 comment total.
0 reply
wrizzler 10 Jun 17, 2013 03:04 AM

was confusing at first but i got used to it

guest
You may want to rate the tab now too:
select rating
Wanna post a correction for this tab? Suggest correction