Oops, an error
Loading. Please wait.

Pastoral Scene chords

127 views 1 this week
no commentswrite comment
1 2 3 4 5
3 more votes to show rating
add to favorites
×
Save as Personal and add changes to this tab that will be seen only by you. Learn more ›
×
You can save this tab as Personal to edit and correct it or add notes. All changes will be seen only by you. Learn more »
launch autoscroll
font size
0
reset
transpose
0
reset
display chords
guitar tuner
edit
Autoscroll
slow
fast
+/-
esc
set tempo
stop
Strumming
There is no strumming pattern for this song yet. and get +5 IQ
Pastoral Scene
By Brock Winthrop

Capo 5


[Opening Tab] x4
e|--3--2-2-0----------------------------------|
B|-----------3--3/5--3-0-------------3--------|
G|-------------------------------2h4---4------|
D|--------------------------------------------|
A|--------------------------------------------|
E|--------------------------------------------|

[Verse 1]
G
Annie carried down to the morgue 
G                                        C
Daisies from the old center store in her hair
G
Charles’ oaken mane woolen white 
G                                C              D    Em
A wedding dress with walnut dye, ain’t it grand 

[Pre-Chorus]
Am        Em          C               G
It’s like dry eyes at Leland Palmer’s wake
Am        Em                C
Every... -thing is going to be okay

[Interlude]
    G                 G                 Em     D   Em
e|--3--3----2-0-------3--3----2---------0------2---0----|
B|--0----3------3-1---0----3--------1-3-0------3---0----|
G|--0-----------------0-----------------0------2---0----|
D|--0-----------------0-----------------2------0---2----|
A|--2-----------------2-----------------2----------2----|
E|--3-----------------3-----------------0----------0----|

[Verse 2] 
G
Taming cold remains in the dark 
G                               C
Lavender perfume, racing hearts in half thyme 
G
Isabelle with old harding’s cane
G                                      C           D   Em
A vision in the hornbeam grain: a slow white death

[Pre-Chorus]
Am        Em          C               G
It’s like dry eyes at Leland Palmer’s wake
Am        Em                C
Every... -thing is going to be okay

[Chorus]
G                 C             G                 C               Em                        
I wanted to plant columbines at Charles Seymour’s grave (a morbid pun) 
      D
To my surprise there wasn’t one


 

************************************

| /  Slide up
| h  Hammer-on
 

************************************

            
            
Suggest correction
Creating personal tab
Creating personal tab
You can edit any tab online and save it as your Personal.

You can edit, replace or remove any tab part or add personal notes – all changes will be seen only by you.

Personal tabs can be accessed anytime from any device, even offline.
Learn more »
Give kudos to tab author, rate the tab!
1 2 3 4 5
comments
print report bad tab
guest
You may want to rate the tab now too:
select rating
Wanna post a correction for this tab? Suggest correction