Oops, an error
Loading. Please wait.

Waste chords

4,528 views 462 this week
4 commentsread comments
1 2 3 4 5
x 14
add to favorites
×
Save as Personal and add changes to this tab that will be seen only by you. Learn more ›
×
You can save this tab as Personal to edit and correct it or add notes. All changes will be seen only by you. Learn more »
launch autoscroll
font size
0
reset
transpose
0
reset
simplify chords
display chords
guitar tuner
edit
Autoscroll
slow
fast
+/-
esc
set tempo
stop
About this tab version
This song is off their album SATURATION. I added two versions of Dmaj7 and Dm because I feel like in the song they leave these chords a bit more open when they play them, but its up to you which version you feel sounds better. Either way, the root chords are still both Dmaj7 and Dm. Also, forgive me on the strumming pattern, that's as close as I could get to the original. If you play along to the song the strumming pattern isn't too complicated. Was this info helpful? Yes No
Strumming Is this strumming pattern correct? Yes No
Whole Song 120 bpm
1
2
3
4
5
6
7
8
9
10
11
12
Listen
[Chords]
Amaj7 (X 0 2 1 2 0)
A7 (X 0 2 0 2 0)
Dmaj7 (X X 0 2 2 2) or (X 0 0 2 2 2) <-- whatever your preference
Dm (X X 0 2 3 1) or (X 0 0 2 3 1) <--whatever your preference

[Verse 1]
Amaj7     Amaj7                 A7            A7             Dmaj7
Was I more than it's worth or will you see my name and I'll fade?
Dmaj7
Pitch my camp in your mind
Dm                 Dm
Sat by the fire, behind your eyes
  Amaj7    Amaj7            A7                        A7                    Dmaj7
And I'll look through them just once or twice but I might see something I don't like
Dmaj7                        Dm
Like your hands in his shirt
             Dm                    Amaj7  A7  Dmaj7  Dm
Entwined in cotton, his loving smirk

[Solo]

e|-----------------------------------------------------------------------------------|
B|------------17s------10h12--10~-----12h14-12------12h14-----10s12--10--------------|
G|----------------------------------------------14---------14-----------9~-----------|
D|--------------------------------------------------------------------------11~~~----|
A|-----------------------------------------------------------------------------------|
E|-----------------------------------------------------------------------------------|

e|-----------------------------------------------------------------------------------|
B|-----------------------------------------------------------------------------------|
G|-----------------------------------------------------------------------------------|
D|--------------------------------------------------------12s14---12--11-------------|
A|-----------11h12-12h14-14h16-12-12h14-16-12-12h14-16-12------------------14s12~~~--|
E|-----12h14-------------------------------------------------------------------------|



[Chorus]
 Amaj7      Amaj7
Losing my way
A7             A7
Seeing your name
             Dmaj7
But I'll be fine yeah
Dmaj7
Yeah, yeah, yeah
Dm
Yeah, yeah, yeah
Dm
Yeah, yeah, yeah, yeah, yeah, yeah, yeah

(No worries)
Amaj7        Amaj7
Losing my way
(Did I come again dressed like a shame?, cloudy)
 A7            A7
Seeing your name
(Eyes are but a pain, roses in my veins, sorry)
             Dmaj7
But I'll be fine yeah

(No worries)
Dmaj7
Yeah, yeah, yeah

(No worries)
 Dm
Yeah, yeah, yeah

(Worries)
 Dm                                     Amaj7
Yeah, yeah, yeah, yeah, yeah, yeah, yeah

[Outro]
Amaj7         A7
Ooh, ooh, ooh
A7           Dmaj7
Ooh, ooh, ooh
Ooh
Dmaj7
Oh-oh-oh-oh
Dm
Oh-oh-ooh
Dm          Amaj7
Oh-oh-oh-ooh

            
            
Suggest correction
Creating personal tab
Creating personal tab
You can edit any tab online and save it as your Personal.

You can edit, replace or remove any tab part or add personal notes – all changes will be seen only by you.

Personal tabs can be accessed anytime from any device, even offline.
Learn more »
comments
print report bad tab
4 comments total. Showing first comments.
+3 reply
tuvalwolf 83 Jun 20, 2017 09:30 AM

Needs to be Dmaj7 bud

0 reply
bloonsmstr54 10 Jul 05, 2017 03:17 PM

awesome, thanks! Also just a mention, there should be an up stroke right before the first beat in each measure.

+2 reply
dannyubad 49 Aug 02, 2017 01:14 AM

this is dope!! can't wait for saturation 2

guest
You may want to rate the tab now too:
select rating
Wanna post a correction for this tab? Suggest correction