Oops, an error
Loading. Please wait.

Army Of Dreamers chords

version 2
version 2

Whole song

124 views 9 this week
no commentswrite comment
1 2 3 4 5
3 more votes to show rating
add to favorites
×
Save as Personal and add changes to this tab that will be seen only by you. Learn more ›
×
You can save this tab as Personal to edit and correct it or add notes. All changes will be seen only by you. Learn more »
launch autoscroll
font size
0
reset
transpose
0
reset
display chords
guitar tuner
edit
Autoscroll
slow
fast
+/-
esc
set tempo
stop
Author
Difficulty
Unregistered
intermediate
Strumming
There is no strumming pattern for this song yet. and get +5 IQ
[Intro]

Am C-G F G-Am x2

    Am                 C     G      F               G       Am
e|--------------------------------------------------------------|
B|----------1---------------------------------------------------|
G|------2-----2---2-------0---------------2---------------------|
D|----2---2-----2-------2-------0------3----3---3------0--------|
A|--0-----------------3-------2------3---3----3------2-----0----|
E|--------------------------3------1---------------3------------|


[intro/Interlude]

e|--------------------------------------------------------------|
B|----------------------------------5-5-5-----------------------|
G|-------4-5-4----------------------------7---7-4-5-4-----------|
D|---5-7-------7-5------------------------------------7---------|
A|-----------------7-8-7-5--------------------------------------|
E|-------------------------8-7-8-5------------------------------|


[Solo]

e|--\5------------------------\5-------------------------|
B|---------------------------------------------5---------|
G|---------------4-4-4-5-----5---5-5---5-5-7-7-----------|
D|-----7-7---7-7-----------------------------------------|
A|-------------------------------------------------------|
E|-------------------------------------------------------|

e|-12---12-12-12-10-10----------10---10-12-10---10-10-10-------------------|
B|---------------------13-13-13--------------------------13-13-12-13-12-10-|
G|-------------------------------------------------------------------------|
D|-------------------------------------------------------------------------|
A|-------------------------------------------------------------------------|
E|-------------------------------------------------------------------------|


[Verse]

Am        
We´re not strange
C          G          
We´re just sleeping
F           G     Am      
We all just drift around
Am
We´re not trying
C      G
We are dreaming
F            G      Am
We all blend in the crowd

Am           G
Down my head turns
       C          G
But in heart fire burns
        Am      G
Down my head it turns
   F     G    Am
In heart fire burns


[Chorus]

C                      G
We´re the army of dreamers
G                 Am
We´re the idle people
Am                          G
We´re the ones that make no sound
G                  Am
Waiting in the background


[Interlude]

Am C-G F G-Am x2


[Verse]

Am               C   G 
Oh, life goes on without us
F               G      Am
People come and people go
Am            C        G       
Every suburb looks the same
F                G        Am
Street by street house by house

Am           G
Down my head turns
       C          G
But in heart fire burns
        Am      G
Down my head it turns
   F     G    Am
In heart fire burns


[Chorus]

C                     G
We´re the army of dreamers
G              Am
We´re the idle people
Am                        G
We´re the ones that don´t count
G              C
Waiting in the background
C                          G
But we are mirrors to this world
G                  Am
We speak, if we´re heard
Am                     G
But we bleed, if we´re hurt
G                       Am
And we seethe, if we´re burned


[Interlude]

Am C-G F G-Am x4


[Chorus]

C                     G
We´re the army of dreamers
G              Am
We´re the idle people
Am                        G
We´re the ones that don´t count
G              C
Waiting in the background
C                          G
But we are mirrors to this world
G                  Am
We speak, if we´re heard
Am                     G
But we bleed, if we´re hurt
G                       Am
And we seethe, if we´re burned

            
            
Suggest correction
Creating personal tab
Creating personal tab
You can edit any tab online and save it as your Personal.

You can edit, replace or remove any tab part or add personal notes – all changes will be seen only by you.

Personal tabs can be accessed anytime from any device, even offline.
Learn more »
Give kudos to tab author, rate the tab!
1 2 3 4 5
comments
print report bad tab
guest
Wanna post a correction for this tab? Suggest correction