Oops, an error
Loading. Please wait.

Dark Star tab

94 views 1 this week
no commentswrite comment
1 2 3 4 5
3 more votes to show rating
add to favorites
×
Save as Personal and add changes to this tab that will be seen only by you. Learn more ›
×
You can save this tab as Personal to edit and correct it or add notes. All changes will be seen only by you. Learn more »
launch autoscroll
font size
0
reset
how to read this tab
guitar tuner
edit
Autoscroll
slow
fast
+/-
esc
set tempo
stop
(kompgitarr spelar med capo på 1:a bandet)

G D Em C x2
G C D

e|----------------------------------------------------------------|
B|----------------------------------------------------------------|
G|--------------13-12-10/12-13------------------------------------|
D|-6-6-6-6/8-10----------------13-10--6/8-10-11-10-8-10-11-13-10--|
A|----------------------------------------------------------------|
E|----------------------------------------------------------------|

e|---------------------------------------------------|
B|---------------------------------------------------|
G|--------13-12-10/12-13-----------------------------|
D|-6/8-10----------------13-10--6/8-10-11-10-8-10-6--|
A|---------------------------------------------------|
E|---------------------------------------------------|

e|-------------------------------------------------------------------|
B|-------------------------------------------------------------------|
G|-13-13-13-13-12-10---------------------------------13-12-13-15-13--|
D|-------------------13-13-13-13-11-10--6/8-10-11-11-----------------|
A|-------------------------------------------------------------------|
E|-------------------------------------------------------------------|

G      C    D
I am a dark star
  G               C    D
I see the cities´ torn scars
G          C        D
I find the raw back streets
  C      C/B  Am
I know a back world


G D Em C x2

e|----------------------------------------------------------------|
B|----------------------------------------------------------------|
G|--------------13-12-10/12-13------------------------------------|
D|-6-6-6-6/8-10----------------13-10--6/8-10-11-10-8-10-11-13-10--|
A|----------------------------------------------------------------|
E|----------------------------------------------------------------|

e|------------------------------------------------------|
B|------------------------------------------------------|
G|--------13-12-10/12-13--------------------------------|
D|-6/8-10----------------13\11-10--6/8-10-11-10-8-10-6--|
A|------------------------------------------------------|
E|------------------------------------------------------|

G               C         D
I see kings and queens at night
G             C    D
In a world of neon lights
G                C   D
I see crimes and skylines
     C        C/B         Am
I´ve seen the night world burn


G C D
Am G Am G Am G C D
G
G D Em C

e|----------------------------------------------------------------|
B|----------------------------------------------------------------|
G|--------------13-12-10/12-13------------------------------------|
D|-6-6-6-6/8-10----------------13-10--6/8-10-11-10-8-10-11-13-10--|
A|----------------------------------------------------------------|
E|----------------------------------------------------------------|

e|-------------------------------------------------------------------|
B|-------------------------------------------------------------------|
G|-13-13-13-13-12-10---------------------------------13-12-13-15-13--|
D|-------------------13-13-13-13-11-10--6/8-10-11-11-----------------|
A|-------------------------------------------------------------------|
E|-------------------------------------------------------------------|

G         C        D
Only they who have loved
G         C        D
Only they who have yearned
G         C        D
Only they who have burned
     C        C/B  Am
Only they can know me
            G
I am a dark star


C D
Am G Am G Am G C D
G
G D Em C x3

 G
e|--------------------------|
B|--------------------------|
G|-13-13-13-13-13-12-10-12--|  (spelas ända till slutet)
D|--------------------------|
A|--------------------------|
E|--------------------------|


************************************

| /  Slide up
| \  Slide down

************************************
Suggest correction
Creating personal tab
Creating personal tab
You can edit any tab online and save it as your Personal.

You can edit, replace or remove any tab part or add personal notes – all changes will be seen only by you.

Personal tabs can be accessed anytime from any device, even offline.
Learn more »
Give kudos to tab author, rate the tab!
1 2 3 4 5
comments
print report bad tab
guest
Wanna post a correction for this tab? Suggest correction