Oops, an error
Loading. Please wait.

Happy People Never Fantasize intro tab

214 views 3 this week
no commentswrite comment
1 2 3 4 5
3 more votes to show rating
add to favorites
×
Save as Personal and add changes to this tab that will be seen only by you. Learn more ›
×
You can save this tab as Personal to edit and correct it or add notes. All changes will be seen only by you. Learn more »
launch autoscroll
font size
0
reset
how to read this tab
guitar tuner
edit
Autoscroll
slow
fast
+/-
esc
set tempo
stop
Author
Unregistered
Dessa ackord går om och om igen genom hela låten:

||: G | D | Am | C :||


[Intro/Interlude]

e|-------------------------------------------------------------------|
B|-------------------------------------------------------------------|
G|-------------------------------------------------------------------|
D|--5---5-7-9-/12--7-7-9-10---10-10-10-9-5--5-7-9---9-7---7-9-7-5----|
A|----------------------------------------------------------------7--|
E|-------------------------------------------------------------------|

e|-------------------------------------|
B|-------------------------------------|
G|-------------------------------------|
D|------5--7--9--12--9-----------------|
A|-------------------------------------|
E|-------------------------------------|


[Verse]

G          D             Am
You get so used to being sad
          C         G
you never try to be glad
           D             Am
You get so used to being sad
C
oooh


[Chorus]

    G     D            Am    C    
But happy people never fantasize
G     D            Am     C
happy people never fantasize
G     D            Am    C
happy people never fantasize

Oh I want to be a part
I look for love in a hollow heart
I want to be a part of something

Happy people never fantasize
happy people never fantasize
My life a compromise
oooh


[solo]

e|---------12-10-7------------------7-7-7-5-3------|
B|-5-3-0-------------0-0-0-------------------------|         
G|-------------------------2-0---------------------|
D|-------------------------------------------------|
A|-------------------------------------------------|
E|-------------------------------------------------|

e|---------12-10-7------------------7-7-7-5-3--5-3-|
B|-5-3-0-------------0-0-0-------------------------|
G|-------------------------2-0---------------------|
D|-------------------------------------------------|
A|-------------------------------------------------|
E|-------------------------------------------------|


[Verse]

I don't need to be
with people who don't care about me


[Chorus]

And happy people never fantasize
happy people never fantasize
happy people never fantasize
Don't look for love in hollow hearts
don't look for love in hollow hearts
don't chase misery
oooh
Suggest correction
Creating personal tab
Creating personal tab
You can edit any tab online and save it as your Personal.

You can edit, replace or remove any tab part or add personal notes – all changes will be seen only by you.

Personal tabs can be accessed anytime from any device, even offline.
Learn more »
Give kudos to tab author, rate the tab!
1 2 3 4 5
comments
print report bad tab
guest
Wanna post a correction for this tab? Suggest correction