Oops, an error
Loading. Please wait.

Hardened Heart chords

version 2
version 2

Whole song

100 views 3 this week
no commentswrite comment
1 2 3 4 5
3 more votes to show rating
add to favorites
×
Save as Personal and add changes to this tab that will be seen only by you. Learn more ›
×
You can save this tab as Personal to edit and correct it or add notes. All changes will be seen only by you. Learn more »
launch autoscroll
font size
0
reset
transpose
0
reset
display chords
guitar tuner
edit
Autoscroll
slow
fast
+/-
esc
set tempo
stop
Author
Difficulty
Unregistered
intermediate
Strumming
There is no strumming pattern for this song yet. and get +5 IQ
Huvudslinga i intro (spelas även under verserna)

e|-----------------------------------|
B|-----------------------------------|
G|-----9-------9-------9-----9-10-12-|
D|-7-7---7-7-7---7-7-7---7-7---------|
A|-----------------------------------|
E|-----------------------------------|

e|------------------------------------------------|
B|------------------------------------------------|
G|-------12----------12----------12-------12-10-9-|
D|------------------------------------------------|
A|-10-10----10-10-10----10-10-10----10-10---------|
E|------------------------------------------------|

Spelas efter huvudslingan (bara i verserna)

e|------------------------------------------------------------------|
B|------------------------------------------------------------------|
G|------------------------------------------------------------------|
D|-----7-------7-------7-------7-------9-------9-------9-------9----|
A|-5-5---5-5-5---5-5-5---5-5-5---5-7-7---7-7-7---7-7-7---7-7-7---7--|
E|------------------------------------------------------------------|


2:a slingan i introt, spelas samtidigt som huvudslingan (spelas inte i versen)

e|--------------------------------------|
B|--------------------------------------|
G|--------------------------------------|
D|-7-9-10-7/12-10-9-10-5-7-9-5/10-9-7-9-|
A|--------------------------------------|
E|--------------------------------------|

[Intro]

Am G Am G


[Verse]

Am       
  In the cold streets at night
           G
There is a war going on
Dm 
Everything happens fast
      E
And a knife is at your throat
Am 
  But I never ask for help
        G
Cause I know there´s none to get
Dm
One thing I´ve learn
E
Never never never give up


[Chorus]

Am                 C
Hardened heart, my heart is hard
G                  F
Hardened heart, my heart is hard
Am                 C
Hardened heart can take no harm
Dm             E
Hardened heart, my heart is hard


[Interlude]

Am G Am G


[Verse]

Am
  You´re always secondary
     G
To important people
Dm
And all the experts
E
Sitting behind desks
Am
  But i never hesitate
G
To retaliate
Dm
I meet force with force
    E
And fist with fist


[Chorus]

Am                 C
Hardened heart, my heart is hard
G                 F
Hardened heart, my heart is hard
Am                 C
Hardened heart can take no harm
Dm             E
Hardened heart, my heart is hard


Am G


[Verse]

Am
  I thought I was weak
    G
But now I´m all steel
Dm
I thank no one
    E
And no one thanks me
Am
  The more you pressure me
    G
The stronger I get
  Dm
Behind every cynic
       E
Lies a bitter dreamer


[Chorus]

Am                 C
Hardened heart, my heart is hard
G                  F
Hardened heart, my heart is hard
Am                 C
Hardened heart can take no harm
Dm             E            Am        G
Hardened heart, my heart is hard


[Chorus]

      Dm      E
Oh my love, 
            Am     G
my heart is hard
            F      G     Am
My heart is hard

            
            
Suggest correction
Creating personal tab
Creating personal tab
You can edit any tab online and save it as your Personal.

You can edit, replace or remove any tab part or add personal notes – all changes will be seen only by you.

Personal tabs can be accessed anytime from any device, even offline.
Learn more »
Give kudos to tab author, rate the tab!
1 2 3 4 5
comments
print report bad tab
guest
Wanna post a correction for this tab? Suggest correction