Oops, an error
Loading. Please wait.

Ill Be Gone chords

version 2
version 2

Whole song

Interactive

340 views 1 this week
no commentswrite comment
1 2 3 4 5
3 more votes to show rating
add to favorites
×
Save as Personal and add changes to this tab that will be seen only by you. Learn more ›
×
You can save this tab as Personal to edit and correct it or add notes. All changes will be seen only by you. Learn more »
launch autoscroll
font size
0
reset
transpose
0
reset
display chords
guitar tuner
edit
Autoscroll
slow
fast
+/-
esc
set tempo
stop
Strumming
There is no strumming pattern for this song yet. and get +5 IQ
Riff 1 har jag skrivit ner i två olika versioner, en med capo
och en utan. Den med capo tycker jag är lite enklare att spela.


[Riff 1] (utan capo):

e|-------------|-------------|-----7-7-5-4-|-----4-5-4-2-|
B|-------------|-----5-5-----|-------------|-------------|
G|-----6-6-4---|---------7-6-|-------------|-------------|
D|-4-4-------7-|-------------|-2-2---------|-------------|
A|-------------|-5-5---------|-------------|-2-2---------|
E|-------------|-------------|-------------|-------------|


[Riff 1] (med capo på 2:a bandet):

e|-------------|-------------|-----5-5-3-2-|-----2-3-2-0-|
B|-------------|-----3-3-1-0-|-------------|-------------|
G|-----4-4-2-0-|-------------|-------------|-------------|
D|-2-2---------|-------------|-0-0---------|-------------|
A|-------------|-3-3---------|-------------|-0-0---------|
E|-------------|-------------|-------------|-------------|


(riff 1)

F#m              D
    I won't last long
E    F#m
soon I'll be gone
F#m              D
    I won't last long
E            F#m
soon I'll be gone
F#m          D
it's all the same to me
                   A
there's nothing to see
                     E
it's all the same to me

(riff 1)

F#m           D
    I feel so weak
E            F#m
I won't last long
F#m           D
    I feel so weak
E           F#m
weak in the world
F#m          D
it's all the same to me
                   A
there's nothing to see
                     E
it's all the same to me
F#m         D
    I'm not made to last
                A
I'm not made to last
               E
I will soon be gone
yeah yeah yeah yeah yeah

(riff 1)

F#m              D
    I won't last long
E    F#m
soon I'll be gone
F#m              D
    I won't last long
E           F#m
oh oh oh oh oh

F#m       D
woh oh oh oh oh oh
      A         E
oh oh oh woh oh oh

there's nothing for me to be
what will happen to me
what will happen to me
although I'll soon be gone
I'll still think of you
oh I'll think of you
and I will soon be gone

            
            
Suggest correction
Creating personal tab
Creating personal tab
You can edit any tab online and save it as your Personal.

You can edit, replace or remove any tab part or add personal notes – all changes will be seen only by you.

Personal tabs can be accessed anytime from any device, even offline.
Learn more »
Give kudos to tab author, rate the tab!
1 2 3 4 5
comments
print report bad tab
guest
Wanna post a correction for this tab? Suggest correction