Oops, an error
Loading. Please wait.

Love Doesnt Last intro tab

31 views 3 this week
no commentswrite comment
1 2 3 4 5
3 more votes to show rating
add to favorites
×
Save as Personal and add changes to this tab that will be seen only by you. Learn more ›
×
You can save this tab as Personal to edit and correct it or add notes. All changes will be seen only by you. Learn more »
launch autoscroll
font size
0
reset
how to read this tab
guitar tuner
edit
Autoscroll
slow
fast
+/-
esc
set tempo
stop
Author
Difficulty
Unregistered
intermediate
[intro]

e|----------------------------------|
B|----------------------------------|
G|----------------------------------|
D|--1-1--/4-/6---1-1-1-1--/8-/6-/4--|
A|----------------------------------|
E|----------------------------------|

e|----------------------------------|
B|----------------------------------|
G|----------------------------------|
D|----1-1--/4-/6------------8--6--4-|
A|-----------------4-4-4-4----------|
E|----------------------------------|

[Verse]

love doesn't last
love grows cold
love doesn't last
break my heart, I sing my song

[Chorus]

and love doesn't last
oh love doesn't last
ah love doesn't last
love doesn't last


[slinga 1]

e|------------------------------------------|
B|--3/6--6--5--3--3--1--3---3/8--8--6--5----|
G|------------------------------------------|
D|------------------------------------------|
A|------------------------------------------|
E|------------------------------------------|

e|------------------------------------------|
B|--5-3--5--6--6--5--3--3-1-3--3/8--6--5----|
G|------------------------------------------|
D|------------------------------------------|
A|------------------------------------------|
E|------------------------------------------|


[slinga 2]

e|--9-9-9-7-7-7-6-6-4-4-4-6-6-6-7-7-6-6-6-4-4-4-2-2-1-1--2--1---2b--2b--1---|
B|--------------------------------------------------------------------------|
G|--------------------------------------------------------------------------|
D|--------------------------------------------------------------------------|
A|--------------------------------------------------------------------------|
E|--------------------------------------------------------------------------|

[Verse]

I don't trust love
I don't trust love
love grows cold
break my heart, I sing my song

[Chorus]

and love doesn't last
oh love doesn't last
ah love doesn't last
love doesn't last

[Verse]

I love someone, she breaks my heart
I love someone oh
love grows cold, love doesn't last
she breaks my heart, I sing my song



************************************

| b  Bend
| /  Slide up

************************************
Suggest correction
Creating personal tab
Creating personal tab
You can edit any tab online and save it as your Personal.

You can edit, replace or remove any tab part or add personal notes – all changes will be seen only by you.

Personal tabs can be accessed anytime from any device, even offline.
Learn more »
Give kudos to tab author, rate the tab!
1 2 3 4 5
comments
print report bad tab
guest
Wanna post a correction for this tab? Suggest correction