Oops, an error
Loading. Please wait.

No Time For Us Acoustic chords

version 3
version 3

Whole song

Interactive

589 views 9 this week
no commentswrite comment
1 2 3 4 5
x 5
add to favorites
×
Save as Personal and add changes to this tab that will be seen only by you. Learn more ›
×
You can save this tab as Personal to edit and correct it or add notes. All changes will be seen only by you. Learn more »
launch autoscroll
font size
0
reset
transpose
0
reset
display chords
guitar tuner
edit
Autoscroll
slow
fast
+/-
esc
set tempo
stop
Strumming
There is no strumming pattern for this song yet. and get +5 IQ
Capo på band 6.


[Main theme]

   C          G              Am            F
e|-----0-----------------------------0--------------1-1-------|
B|-------1--------3-3---0--------------1------------------1---|
G|---0----0-----------0----------2-------2-------------2------|
D|--2-------2------------------2------------2-----------------|
A|-3------------2------------0------------3-------------------|
E|------------3---------------------------------1-------------|

   C          G              Am                 F
e|-----0-----------------------------0--------------1-1-------|
B|-------1--------0-0---0--------------1------------------1---|
G|---0----0-----------0----------2-------2-------------2------|
D|--2-------2------------------2------------2-----------------|
A|-3------------2------------0------------3-------------------|
E|------------3---------------------------------1-------------|


[Piano part]

e|-9--6--4-----4--6--9--6--4-------4--6--9--6--4----4----------------|
B|----------7-----------------7-------------------7---7--7-7--7--7---|
G|-------------------------------------------------------------------|
D|-------------------------------------------------------------------|
A|-------------------------------------------------------------------|
E|-------------------------------------------------------------------|


[Intro]

C G Am F  x4

C            G        Am
 There is no time for us
            F        C
There is no time for us
       G                Am
Oh the world won´t understand
             F        C
It´s left no time for us

G Am F
C G Am F

C         G                        Am
 I love a girl I´ll never see her again
           F                        C
She was so young I´ll never see her again
           G   Am
She was so young
           F         C
I´ll never see her again

G Am F
C G Am F

C         G                Am
 What is worthwhile in the world
             F                   C
If you can´t be with the one you love
        G    Am
What is worthwhile
            F                 C
We´ll be forgotten when we´re gone

G Am F
C G Am F
Am G C F  x2
C G Am F  x4

C           G                   Am
 If I could change one thing in life
         F        C
I´d make time for us
           G          Am
If I could change one thing
         F        C
I´d make time for us


[Outro]

G Am F
C G Am F  x2
C G Am F  x7
C

            
            
Suggest correction
Creating personal tab
Creating personal tab
You can edit any tab online and save it as your Personal.

You can edit, replace or remove any tab part or add personal notes – all changes will be seen only by you.

Personal tabs can be accessed anytime from any device, even offline.
Learn more »
comments
print report bad tab
guest
Wanna post a correction for this tab? Suggest correction