Oops, an error
Loading. Please wait.

When We Were Winning chords

version 2
version 2

Whole song

118 views 3 this week
no commentswrite comment
1 2 3 4 5
3 more votes to show rating
add to favorites
×
Save as Personal and add changes to this tab that will be seen only by you. Learn more ›
×
You can save this tab as Personal to edit and correct it or add notes. All changes will be seen only by you. Learn more »
launch autoscroll
font size
0
reset
transpose
0
reset
display chords
guitar tuner
edit
Autoscroll
slow
fast
+/-
esc
set tempo
stop
Strumming
There is no strumming pattern for this song yet. and get +5 IQ
Capo på 5:e bandet


G D Em C

e|-------------------------------------------|
B|-------------------------------------------|
G|--5--9b10r9-7--9--7--5--16b17r16--14-------|  x2
D|-------------------------------------------|
A|-------------------------------------------|
E|-------------------------------------------|

         G
Oh, when we were seventeen
    D
Oh, life was like a film
     Am
When we were seventeen
            C
The sky was always tangerine
       G
We ran through streets at night
D
Under starlight
   Am
We ran through streets at night
     C
When we were winning


G D Em C

e|-----------------------------------------|
B|-----------------------------------------|
G|--5--9b10r9-7--9--7--5--16b17r16--14-----|
D|-----------------------------------------|
A|-----------------------------------------|
E|-----------------------------------------|

   G
Oh wild was the world
    D
And wild we burned
        Am
We were kings of the streets
        C
Not yet beaten by defeats
    G
But now it´s hard to see
          D
Through a fog of memories
    Am
But I remember
     C
When we were winning


G D Em C

e|-----------------------------------------|
B|-----------------------------------------|
G|--5--9b10r9-7--9--7--5--16b17r16--14-----|
D|-----------------------------------------|
A|-----------------------------------------|
E|-----------------------------------------|

       G
Now my friends are unemployed
    D
Not needed in this world
Am
Pushed down by this town
    C
And always turned down
       G
But in dreams at night
         D
They can sometimes recall
     Am
When we were heroes
     C
When we were winning


G D Em C

e|-----------------------------------------|
B|-----------------------------------------|
G|--5--9b10r9-7--9--7--5--16b17r16--14-----|
D|-----------------------------------------|
A|-----------------------------------------|
E|-----------------------------------------|

Em                       D
What have we done to our lifes
Em                    D
We could have been anything
Em                     D
We gave it all up, for what
               C
Is there still time


G D Em C

e|-----------------------|
B|-----------------------|
G|--5--7--9b10-----------|
D|--------------7--9b10--|
A|-----------------------|
E|-----------------------|
        G
Oh it´s in the air at night
           D
There is a wind coming in
    Am
The day is dying
         C
Oh, it´s so beatiful
                  G
There´s something happening somewhere
           D
I take the bus into town
    Am
All else is nothing
    C
And we are winning


G D Em C

e|------------------------------------------|
B|------------------------------------------|
G|--5--9b10r9-7--9--7--5--16b17r16--14------|
D|------------------------------------------|
A|------------------------------------------|
E|------------------------------------------|

G              D
Soon I´ll grow older
        Em
But god knows
          C
I haven´t lived yet
  G                D
Before tonight´s a memory
        Em              C
Lets go out, I am still young


G D Em C

e|------------------------------------------------|
B|------------------------------------------------|
G|--9-9-7-7-7-5-5-5-7-7-7--9-9-7-7-7-5-5-5-7-7-7--|
D|------------------------------------------------|
A|------------------------------------------------|
E|------------------------------------------------|

e|------------------------------------------------------|
B|------------------------------------------------------|
G|--10-10-9-9-9-7-7-7-9-9-9--10-10-9-9-9-7-7-7-9-9-9-9--|
D|------------------------------------------------------|
A|------------------------------------------------------|
E|------------------------------------------------------|


************************************

| r  Release
| b  Bend

************************************
Suggest correction
Creating personal tab
Creating personal tab
You can edit any tab online and save it as your Personal.

You can edit, replace or remove any tab part or add personal notes – all changes will be seen only by you.

Personal tabs can be accessed anytime from any device, even offline.
Learn more »
Give kudos to tab author, rate the tab!
1 2 3 4 5
comments
print report bad tab
guest
Wanna post a correction for this tab? Suggest correction