Oops, an error
Loading. Please wait.

Stupid Bastard Tab

85 views 1 this week
no commentswrite comment
1 2 3 4 5
please rate
add to favorites
launch autoscroll
font size
0
reset
how to read this tab
guitar tuner
Autoscroll
slow
fast
+/-
esc
set tempo
stop
Help us to improve Ultimate-Guitar.com Take our survey!
×
Contributor
Artist: Brodie
Song: Stupid Bastard
Album: Brodie Demo
Tabbed by: Tim Bryant
Email: theimmoralmonkey@hotmail.com

Yet again, another quality brodie tab. This is 99.99% correct so enjoy this tab.
Email comments etc to me.

Intro Part1 - Rhythm Guitar

-----------
-----------
-----------
--5--------
--3--5--3--
-----3--1--


Intro Part1 - Lead

------------------------------------------------------------------
------------------------------------------------------------------
------------------------------------------------------------------
-------5-----5---3-----3-----3-5-------5-----5---3-----3-----3-5--
-3-3-3---3-3---3---3-3---3-3--------------------------------------
---------------------------------3-3-3---3-3---3---3-3---3-3------

------------------------------------------------------------------
------------------------------------------------------------------
------------------------------------------------------------------
-------3-----3---2-----2-----2-3-------3-----3---2-----2-3-2-0-2--
------------------------------------------------------------------
-1-1-1---1-1---1---1-1---1-1-----1-1-1---1-1---1---1-1------------


Intro Part 2 - Lead

------------------------------------------------------------------
------------------------------------------------------------------
------------------------------------------------------------------
-------2-2-2-3-3-5-5-5-3-3-3-2-2--------2-2-2-3-3-5-5-5-3-3-3-2-2-
-3-3-3------------------------------------------------------------
----------------------------------3-3-3---------------------------

------------------------------------------------------------------
------------------------------------------------------------------
------------------------------------------------------------------
-------3-3-3-2-2-0-0-0-2-2-2-0-0-------3-3-3-2-2-0-0-0-2-3-2-0-2--
------------------------------------------------------------------
-1-1-1---------------------------1-1-1----------------------------


Chorus

--------------------
--------------------
--------------------
--------------------
--7--5--3--3--3--5--
--5--3--1--0--1--3--



Solo - I play this differently now so the actual number of pick hits on each note 
maybe a bit different on the recording but this is really close. 

----------------------------------------------------------------------------------
----------------------------------------------------------------------------------
-9-------------------------------10-9-9-12-------12-12-12-10-10-10-9-9-9-10-9-----
---12-10-9----12-10-9-9-10-10-12-----------12---------------------------------10--
-----------10---------------------------------10----------------------------------
----------------------------------------------------------------------------------


----------------------------------------------------------------------------------
----------------------------------------------------------------------------------
---------------------9-10-12-10-9-9-9-9-12-10-9-12-10-9-9-10-9----------9---------
-10-12-------9-10-12-------------------------------------------12-12-12---10-10-10
-------10-12---------------------------------------------------------------------
----------------------------------------------------------------------------------

----------------------------------------------------------------------------------
----------------------------------------------------------------------------------
--------------------------------10-9-9--------------------------------------------
10-12-9-9-9-9-12-10-10-10-10-12--------12-10-9----12-10-9-10-10-10-10-10-10-12-12-
-----------------------------------------------10---------------------------------
----------------------------------------------------------------------------------

----------------------------------------------------------------------------------
----------------------------------------------10----------------------------------
-------------9-9-9-9-9-12-12-12-12-12-12-9-12-------------------------------------
-12-12-12-12----------------------------------------------------------------------
----------------------------------------------------------------------------------
----------------------------------------------------------------------------------

Ending - Rhythm Guitar

4 patters of 3 hits each on each of these chords

--------------------
--------------------
--------------------
--------------------
--7--5--3--3--3--5--
--5--3--1--0--1--3--


Ending - Lead


------------------
------------------
--------7-9-12-14-
-7-9-10-----------
--------5-7-10-12-
-5-7-8------------

that’s it, enjoy people.
laters
comments
We did not receive enough feedback on this tab! Please rate:
print report bad tab
1 2 3 4 5
I want to post or [tab]
guest
You may want to rate the tab now too:
select rating
Please do not post tabs as comments. Select "correction" instead!