Oops, an error
Loading. Please wait.

Donner Und Blitzen chords

version 1
version 1

Whole song

Interactive

209 views 3 this week
no commentswrite comment
1 2 3 4 5
3 more votes to show rating
add to favorites
×
Save as Personal and add changes to this tab that will be seen only by you. Learn more ›
×
You can save this tab as Personal to edit and correct it or add notes. All changes will be seen only by you. Learn more »
launch autoscroll
font size
0
reset
transpose
0
reset
display chords
guitar tuner
edit
Autoscroll
slow
fast
+/-
esc
set tempo
stop
Author
Strumming
There is no strumming pattern for this song yet. and get +5 IQ
Für die richtige Spielweise, einfach in´s Lied hören.

    C     A     F     G
e|-----|-----|-----|-----|
B|-----|-----|-----|-----|
G|--5--|-----|-----|-----|
D|--5--|--7--|--3--|--5--| 
A|--3--|--7--|--3--|--3--|
E|-----|--5--|--1--|--3--|

Intro 1 [3x]:                      Intro 2 [3x]:

Guitar 1:

  C  /  A  /  F  |  G           |   |  C           A          | F          G           |          

Guitar 2:
   
e|---------------|--------------|  e|-------------------------|------------------------|
B|---------------|--------------|  B|--------------8----------|-8----------------------|
G|--9------------|--10--9--7-9--|  G|--9--9-9-9--9----9-7--9--|----9-7--9--10--9--7-9--|        
D|---------------|--------------|  D|-------------------------|------------------------|
A|---------------|--------------|  A|-------------------------|------------------------|
E|---------------|--------------|  E|-------------------------|------------------------|




Strophe 1:

C         A
Seid sexy an dem Tag,
F                G
An dem wir unter die Erde gehen,
C           A
Es soll uns an nichts fehlen.
F               G
Wehe dem, bei dem ich's anders sehe,
C               A
Leert Alkohol - Ressourcen,
F             G
Trinkt teuren Wein,
C                 A
Die Tränen werden trocknen,
F                 G
Die Nutten sollen schrein.

Break [2x]

 |  C           A          | F          G           | -> Guitar 1

e|-------------------------|------------------------|
B|--------------8----------|-8----------------------|
G|--9--9-9-9--9----9-7--9--|----9-7--9--10--9--7-9--| -> Guitar 2
D|-------------------------|------------------------|
A|-------------------------|------------------------|
E|-------------------------|------------------------|

Strophe 2:

C                A
Die Erde ist 'ne Scheibe,
F                 G
Wir stehen nah am Rand,
C          A
Donner und Blitzen,
F
In Frankreich, England und Deutschland

Kehrreim:

C    A              F              G     
Wir, wir sind nicht ohne Grund und nicht vergebens,
C       A           F     G
Auf der Überholspur des Lebens.
C         A       F            G
Wir, wir und unsere Sorte,
C              A
klingeln Sturm
   F         G
An der Himmelspforte.

Break [2x]

 |  C           A          | F          G           | 

e|-------------------------|------------------------|
B|--------------8----------|-8----------------------|
G|--9--9-9-9--9----9-7--9--|----9-7--9--10--9--7-9--|
D|-------------------------|------------------------|
A|-------------------------|------------------------|
E|-------------------------|------------------------|

Strophe 3:

C           A
Das Leben geht vorbei,
F              G
Genieße alles, was du tust,
C            A
Denn schlechten Menschen,
F              G
Geht es immer gut.
C                A
Können wir nicht alles haben,
F               G
Dann wollen wir nichts,
C            A
Erbarmen dem,
F                G
Der mit dem Leben bricht.

Break [2x]

 |  C           A          | F          G           | 

e|-------------------------|------------------------|
B|--------------8----------|-8----------------------|
G|--9--9-9-9--9----9-7--9--|----9-7--9--10--9--7-9--|
D|-------------------------|------------------------|
A|-------------------------|------------------------|
E|-------------------------|------------------------|

Strophe 4:

C             A
Immer auf der linken Spur,
F                 G
Die Blinker links gesetzt,
C          A
Donner und Blitzen
F
Für Punkrocker und Skinheads.

Kehrreim:

C    A              F              G     
Wir, wir sind nicht ohne Grund und nicht vergebens,
C       A           F     G
Auf der Überholspur des Lebens.
C         A       F            G
Wir, wir und unsere Sorte,
C              A
klingeln Sturm
   F         G
An der Himmelspforte.


C    A              F              G     
Wir, wir sind nicht ohne Grund und nicht vergebens,
C       A           F     G
Auf der Überholspur des Lebens.
C        A       F            G
Wir, wir und unsere Sorte,
C              A
klingeln Sturm
   F         G
An der Himmelspforte.

            
            
Suggest correction
Creating personal tab
Creating personal tab
You can edit any tab online and save it as your Personal.

You can edit, replace or remove any tab part or add personal notes – all changes will be seen only by you.

Personal tabs can be accessed anytime from any device, even offline.
Learn more »
Give kudos to tab author, rate the tab!
1 2 3 4 5
comments
print report bad tab
guest
You may want to rate the tab now too:
select rating
Wanna post a correction for this tab? Suggest correction