Oops, an error
Loading. Please wait.

Tanzt Du Noch Einmal Mit Mir tab

version 1
version 1

Whole song

Interactive

6,152 views 42 this week
no commentswrite comment
1 2 3 4 5
3 more votes to show rating
add to favorites
×
Save as Personal and add changes to this tab that will be seen only by you. Learn more ›
×
You can save this tab as Personal to edit and correct it or add notes. All changes will be seen only by you. Learn more »
launch autoscroll
font size
0
reset
how to read this tab
guitar tuner
edit
Autoscroll
slow
fast
+/-
esc
set tempo
stop
Author
Difficulty
TANZT DU NOCH EINMAL MIT MIR - BROILERS
Tabbed by: MEARTN
Tuning: STANDARD E
2. guitar uses capo on first fret

[Intro]
1. guitar
e|---------------------------------------------------------------------------|
B|---------------------------------------------------------------------------|
G|---------------------------------------------------------------------------|
D|--------------------------------------------------------6/8-6--------------| 
A|-------4-6b8-4--------4-6b8-4-6-----6b8-4-------4-6b8-4--------------------|
E|---4-6---------6--4-6-----------4-6-------6-4-6----------------------------|

2. guitar  D#m  F#         C#   G#     D#m  F#       C# G#  (let chords ring)
e|--------------------------------------------------------------------------|
B|--------------------------------------------------------------------------|
G|----------8--------------6------------8------------6----------------------|
D|----------8---4----------6----6-------8---4--------6---6------------------|
A|----------6---4----------4----6-------6---4--------4---6------------------|
E|--------------2---------------4-----------2------------4------------------|

1. guitar
e|---------------------------------------------------------------------------|
B|---------------------------------------------------------------------------|
G|---------------------------------------------------------------------------|
D|--------------------------------------------------------6/8-6--------------|
A|---------6b8-4--------4-6b8-4-6-----6b8-4-------4-6b8-4--------------------|
E|---------------6--4-6-----------4-6-------6-4-6----------------------------|

2. guitar  D#m  F#         C#   G#     D#m  F#       C# G#  (let chords ring)
e|--------------------------------------------------------------------------|
B|--------------------------------------------------------------------------|
G|----------8--------------6------------8------------6----------------------|
D|----------8---4----------6----6-------8---4--------6---6------------------|
A|----------6---4----------4----6-------6---4--------4---6------------------|
E|--------------2---------------4-----------2------------4------------------|

[Verse]

In the verse both guitars play the chords palm muted just down strumming (8th notes).
... D#m F# C# G# ...
______

[Chorus]
   D#m      B               F#   C#
 " tanzt du noch einmal mit mir, sei einfach ..."
e|---------------------------------------------------------------------------|
B|---------------------------------------------------------------------------|
G|-8--------4------------------------6---------------------------------------| (4x)
D|-8--------4---------------4--------6---------------------------------------|
A|-6--------2---------------4--------4---------------------------------------|
E|--------------------------2------------------------------------------------|

1. guitar after first Chorus
e|---------------------------------------------------------------------------|
B|---------------------------------------------------------------------------|
G|--------8b10-6-8-----6--8b10-6-------6-8b10-6-8-----6-8b10-6-8-------------|
D|-----------------6-8-----------8-6-8------------6-8------------------------|
A|---------------------------------------------------------------------------|
E|---------------------------------------------------------------------------|

2. guitar  D#m  F#         C#   G#     D#m  F#       C# G#  (let chords ring)
e|--------------------------------------------------------------------------|
B|--------------------------------------------------------------------------|
G|----------8--------------6------------8------------6----------------------|
D|----------8---4----------6----6-------8---4--------6---6------------------|
A|----------6---4----------4----6-------6---4--------4---6------------------|
E|--------------2---------------4-----------2------------4------------------|

[Second Verse] Git. 1 plays down strummed chords same as in first verse.
guitar 2 (with and therefore the capo) plays palm muted:
   "Die Gesichter wechseln und die Farben wechseln auch. 
e|---------------------------------------------------------------------------|
B|---------------------------------------------------------------------------|
G|--8-8-6-6-8-8-6-6-8-8-6-6-8-8-6-6-...--------------------------------------|
D|--1-1-1-1-1-1-1-1-1-1-1-1-1-1-1-1-...--------------------------------------|
A|---------------------------------------------------------------------------|
E|---------------------------------------------------------------------------|

   Gezielte Worte zu stimmungsvoller Zeit. 
e|---------------------------------------------------------------------------|
B|---------------------------------------------------------------------------|
G|--11-11-10-10-11-11-10-10-11-11-10-10-11-11-10-10-...----------------------|
D|---1--1--1--1--1--1--1--1--1--1--1--1--1--1--1--1-...----------------------|
A|---------------------------------------------------------------------------|
E|---------------------------------------------------------------------------|

Der Mob, er läuft nicht, der Mob, er rennt. Den Nerv getroffen und das Schwein in dir befreit."

e|---------------------------------------------------------------------------|
B|---------------------------------------------------------------------------|
G|---8-8-6-6-8-8-6-6-8-8-6-6-8-8-6-6-...----x--------------------------------|
D|---1-1-1-1-1-1-1-1-1-1-1-1-1-1-1-1-...----x--------------------------------|
A|---------------------------------------------------------------------------|
E|---------------------------------------------------------------------------|

[Solo]
e|---------------------------------------------------------------------------|
B|---------------------------------------------------------------------------|
G|----8-8-8/10-6-8-6-8-11-11-11-13-13b(15)-----------------------------------| 2x
D|---------------------------------------------------------------------------|
A|---------------------------------------------------------------------------|
E|---------------------------------------------------------------------------|

************************************

| /  Slide up
| b  Bend
| x  Dead note

************************************

            
            
Suggest correction
Creating personal tab
Creating personal tab
You can edit any tab online and save it as your Personal.

You can edit, replace or remove any tab part or add personal notes – all changes will be seen only by you.

Personal tabs can be accessed anytime from any device, even offline.
Learn more »
Give kudos to tab author, rate the tab!
1 2 3 4 5
comments
print report bad tab
guest
You may want to rate the tab now too:
select rating
Wanna post a correction for this tab? Suggest correction