Oops, an error
Loading. Please wait.

Halcyon Birds Acoustic tab

7,327 views 81 this week
no commentswrite comment
1 2 3 4 5
x 3
add to favorites
×
Save as Personal and add changes to this tab that will be seen only by you. Learn more ›
×
You can save this tab as Personal to edit and correct it or add notes. All changes will be seen only by you. Learn more »
launch autoscroll
font size
0
reset
how to read this tab
guitar tuner
edit
Autoscroll
slow
fast
+/-
esc
set tempo
stop
-------------------------------------------------------------------------------
                             HALCYON BIRDS - Broken Back
-------------------------------------------------------------------------------
Tabbed by: Blue_Falcon
E-mail: jadsetts2@gmail.com

I couldn't find the tab for this one so I did it myself.

This is also my first tab so feedback would be appreciated, let me know what you think!

CAPO ON THE 6TH FRET

CHORDS: Am G C C

Tuning: STANDARD

e|-----------0----0----|----------3----3----|----------0----0----|------------0--------|
B|-----------1----1----|----------0----0----|----------1----1----|------------1--------|
G|--------2------------|-------0------------|-------0------------|-------0-------------|
D|---------------------|--------------------|--------------------|---------------------|
A|--0------------------|--------------------|--3-----------------|--3------------------|
E|---------------------|--3-----------------|--------------------|---------------------|

This is the main part of the song that is repeated.

e|--0h3------0----0----|--0h3-----0----0----|--0h3-----0----0----|--0h3-------0--------|
B|-----------1----1----|----------0----0----|----------1----1----|------------1--------|
G|--------2------------|-------0------------|-------0------------|-------0-------------|
D|---------------------|--------------------|--------------------|---------------------|
A|--0------------------|--------------------|--3-----------------|--3------------------|
E|---------------------|--3-----------------|--------------------|---------------------|

This is a spin on the main riff that starts playing at 0:59 on the iTunes version 
and is played the rest of the song.

e|--0----0--3--3s5--3--0--------|--0----0--3--3s5--3--0---------|
B|------------------------------|--------------------------3----|
G|------------------------------|-------------------------------|    x2
D|-(2)-----(0)--------(2)-------|-(2)-----(0)--------(2)--------|
A|------------------------------|-------------------------------|
E|------------------------------|-------------------------------|

Here is the first bridge that starts at 1:31 on the iTunes version.

e|----------------------------|-------------------------------|
B|----------------------------|-------------------------------|
G|----------------------------|-------------------------------|    x2
D|--2----2--2s5--5--5s7--5----|--2----2--2s5--5--5s7----------|
A|----------------------------|-------------------------------|
E|----------------------------|-------------------------------|

Here is the second bridge that starts at 3:23 on the iTunes version.

There is a part at 2:35 that only plays the 4 low strings indiscriminately of the same chord 
progression that is played throughout the song (Am G C C).

And that should about do it. Keep on playing!

************************************

| ()  optional bass notes
| s   slide up
| h   hammer-on

************************************
Suggest correction
Creating personal tab
Creating personal tab
You can edit any tab online and save it as your Personal.

You can edit, replace or remove any tab part or add personal notes – all changes will be seen only by you.

Personal tabs can be accessed anytime from any device, even offline.
Learn more »
Give kudos to tab author, rate the tab!
1 2 3 4 5
comments
print report bad tab
guest
You may want to rate the tab now too:
select rating
Wanna post a correction for this tab? Suggest correction