Oops, an error
Loading. Please wait.

Kc Accidental intro tab

version 1
version 1

Intro

Whole song

9,479 views 9 this week
3 commentsread comments
1 2 3 4 5
x 6
add to favorites
×
Save as Personal and add changes to this tab that will be seen only by you. Learn more ›
×
You can save this tab as Personal to edit and correct it or add notes. All changes will be seen only by you. Learn more »
launch autoscroll
font size
0
reset
how to read this tab
guitar tuner
edit
Autoscroll
slow
fast
+/-
esc
set tempo
stop
Difficulty
Tabbed by: AfroThunder242
Email: AfroThunder242@yahoo.com

Tuning: Standard

e|---------------------------------------------------------------------------|
B|-3--3--3-1--0--0------1--0-------------------------------------------------|
G|-0--0--0-0--0--0---------0-------------------------------------------------|
D|-2--2--2-2--2--2--0-4----2-------------------------------------------------|
A|---------------------------------------------------------------------------|
E|---------------------------------------------------------------------------|

I labeled this as just the intro, but this is pretty much how the whole song is. 
Suggest correction
Creating personal tab
Creating personal tab
You can edit any tab online and save it as your Personal.

You can edit, replace or remove any tab part or add personal notes – all changes will be seen only by you.

Personal tabs can be accessed anytime from any device, even offline.
Learn more »
comments
print report bad tab
3 comments total.
0 reply
AuntNastyOven 10 Nov 23, 2007 01:27 PM

This is incorrect.

0 reply
AuntNastyOven 10 Nov 23, 2007 01:31 PM

Here is the correct version

-----7-----
-----
--7---7--7--5--4-4-5---4-----
--5---5-----5-~-4-----
--7---7-----5-~-5-----
-----

+2 reply
Indie Purist 949 Dec 13, 2010 05:34 PM

e|------------------------------------------------------
B|--------------------0---------------------------------
G|--7-7-7-5-4-4-----5-0---------------------------------
D|--5-5-5-5-5-5---4---2---------------------------------
A|--7-7-7-7-5-5-5-----3---------------------------------
E|------------------------------------------------------

e|------------------------------------------------------
B|-----------------0------------------------------------
G|--7-7-7-5-4-4-5--0------------------------------------
D|--5-5-5-5-5-5-5--2------------------------------------
A|--7-7-7-7-5-5-5--3------------------------------------
E|------------------------------------------------------

guest
Wanna post a correction for this tab? Suggest correction