Oops, an error
Loading. Please wait.

Kc Accidental Tab

version 1
version 1

Whole song

6,382 views 6 this week
3 commentsread comments
1 2 3 4 5
x 7
add to favorites
launch autoscroll
font size
0
reset
how to read this tab
guitar tuner
Autoscroll
slow
fast
+/-
esc
set tempo
stop
Help us to improve Ultimate-Guitar.com Take our survey!
×
Author
KC Accidental
Broken Social Scene

Standard Tuning

Play with some reverb

Chords:

Em7(sus2): x7575x
Am7/E:     x755xx
G:         x554xx
D7:        x545xx
Cmaj7:     x3200x

Intro:
let ring...................
e----------------------------|
A-(5)---------------------0--|
D--7--7--7-5--4--4-----5--0--|
G--5----------5------4----2--|
B--7----------5----5------3--|
E----------------------------|

I'll add the rest when I have time (and a computer).
Suggest correction
comments
print report bad tab
3 comments total.
-1 reply
loopdeloop 216 May 18, 2009 07:36 PM

2/5 for incomplete tab, although you have an intro that sounds better than all the other ones

+1 reply
Indie Purist 949 Dec 13, 2010 10:35 PM

e|------------------------------------------------------
B|--------------------0---------------------------------
G|--7-7-7-5-4-4-----5-0---------------------------------
D|--5-5-5-5-5-5---4---2---------------------------------
A|--7-7-7-7-5-5-5-----3---------------------------------
E|------------------------------------------------------

e|------------------------------------------------------
B|-----------------0------------------------------------
G|--7-7-7-5-4-4-5--0------------------------------------
D|--5-5-5-5-5-5-5--2------------------------------------
A|--7-7-7-7-5-5-5--3------------------------------------
E|------------------------------------------------------

0 reply
ralius18 209 Sep 17, 2014 11:11 PM

Tab incomplete. Clearly incomplete tab Clearly incomplete tab Clearly incomplete tab Clearly incomplete tab Clearly incomplete tab Clearly incomplete tab Clearly incomplete tab Clearly incomplete tab

guest
You may want to rate the tab now too:
select rating
Wanna post a correction for this tab? Suggest correction