Oops, an error
Loading. Please wait.

Pacific Theme bass

1,994 views 1 this week
no commentswrite comment
1 2 3 4 5
2 more votes to show rating
add to favorites
×
Save as Personal and add changes to this tab that will be seen only by you. Learn more ›
×
You can save this tab as Personal to edit and correct it or add notes. All changes will be seen only by you. Learn more »
launch autoscroll
font size
0
reset
guitar tuner
edit
Autoscroll
slow
fast
+/-
esc
set tempo
stop
Difficulty
-------------------------------------------------------------------------------
	              Pacific Theme - Broken Social Scene
-------------------------------------------------------------------------------

Tabbed By : Aaron Wolfe
e-mail: truegoogle@yahoo.com

Tuning: Standard

Intro: Technically there's no bass here, but if you want to play it:
G|----------|
D|----------|
A|----------| times a bunch...
E|-3---1~---|

Beginning Riff                        * *
G|-------------------------------------------|
D|----------------------3---3-3---3---3-3--3-|
A|-3---3-3---3---3-3--3----------------------|
E|-------------------------------------------|
Repeat a few times, occasionally going up to the 5th fret at the *'s and hitting it 
as opposed to three times for the 3rd fret

When the guitar riff changes:
Main Riff
G|-------------------------------------------|
D|-----------------7-7--3---3-3---3---3--5-5-|
A|-3---3-3---3---3---------------------------|
E|-------------------------------------------|

Main riff later on

G|--------------------------------------2345-|
D|-----------------7-7--3---3-3---3---3------|
A|-3---3-3---3---3---------------------------|
E|-------------------------------------------|

The Intro gets used again during the breakdown

There's also a part near the end (around 3:45) which goes like this (not entirely sure, 
you feel its wrong let me know)
G|----12------12------12------12~-----10-----10-----10-----10~-|
D|-10-----10------10------10-------8------8------8------8------|
A|-------------------------------------------------------------|
E|-------------------------------------------------------------|

G|----12------12------12------12~-----10-----10-----10-----10~-|
D|-10-----10------10------10-------8------8------8------8------|
A|-------------------------------------------------------------|
E|-------------------------------------------------------------|

G|----14------14------14------14~------12-----12-----12-----12~-|
D|-12-----12------12------12-------10-----10-----10-----10------|
A|--------------------------------------------------------------|
E|--------------------------------------------------------------|

G|----14------14------14------14~------12-----12-----12-----12~-|
D|-12-----12------12------12-------10-----10-----10-----10------|
A|--------------------------------------------------------------|
E|--------------------------------------------------------------|

Then slide back to the intro.

Thats about it. Let me know what you think, and tell me if you want to make corrections, etc.


| /  slide up
| \  slide down
| h  hammer-on
| p  pull-off
| ~  vibrato
| +  harmonic
| x  Mute note
===============================================================================

            
            
Suggest correction
Creating personal tab
Creating personal tab
You can edit any tab online and save it as your Personal.

You can edit, replace or remove any tab part or add personal notes – all changes will be seen only by you.

Personal tabs can be accessed anytime from any device, even offline.
Learn more »
Give kudos to tab author, rate the tab!
1 2 3 4 5
comments
print report bad tab
guest
Wanna post a correction for this tab? Suggest correction