Oops, an error
Loading. Please wait.

Superconnected bass

1,188 views 1 this week
no commentswrite comment
1 2 3 4 5
2 more votes to show rating
add to favorites
×
Save as Personal and add changes to this tab that will be seen only by you. Learn more ›
×
You can save this tab as Personal to edit and correct it or add notes. All changes will be seen only by you. Learn more »
launch autoscroll
font size
0
reset
guitar tuner
edit
Autoscroll
slow
fast
+/-
esc
set tempo
stop
Author
Difficulty
------------------------------------------------------------------------------
		      SUPERCONNECTED - Broken Social Scene
------------------------------------------------------------------------------

Tabbed By : jammoe	 
e-mail: nerdysitespace@yahoo.ca

Tuning: Standard
Key: E major

*Timing approximately indicated by spacing, on the parts with semi-syncopated
rhythms on the same note I'm pretty much guessing. I've put a "q" over quieter
notes, a "s" over stronger notes, where it seemed appropriate, it's not exact
though. You gotta listen, yeah? E-mail with any questions.*


(0:00) [it sounds like some sort of contribution to the effects at the start, I'm
not sure what exactly though]


(0:37)
3x s  s  s            s               q
G|--------------------8\----11--------9--------------------------------------|
D|---------------9--9--------------------------(something.quiet.maybe?)------|
A|-7--7--9h11h12-------------------------------------------------------------|
E|---------------------------------------------------------------------------|


(1:11)
2x(q...)
G|-----------------------------------------------------------------------|
D|-----------------------------------------------------------------------|
A|-----------------------------------------------------------------------|
E|-9--9--9-9-9--9--9-9--9--9-9-9h11--11-11-11-11-11-11--11-11--11-11-11p9|

G|-----------------------------------------------------------------------|
D|-----------------------------------------------------------------------|
A|-----------------------------------------------------------------------|
E|-9--9--9-9-9--9--9-9--9--9-9-9h11--11-11-11-11-11-11--11-11--11-11-11--|
   q........................................................................
G|---------------------------------------------------------------------------|
D|---------------9--------------------9--------------------------------------|
A|-7--7--9h11h12-------------------------------------------------------------|
E|---------------------------------------------------------------------------|


(1:46)
4x s  s                         (q) s                       (q)
G|-------------------------------------------------------------|
D|-6--6--6h7h9-11---11-11--11-11p11-9--9-9-9-9-9-9--9-9--9-9p7-|
A|-------------------------------------------------------------|
E|-------------------------------------------------------------|


(2:08)
2x                          q         q
G|--------------------8\----11--------9--------------------------------------|
D|---------------9--9--------------------------------------------------------|
A|-7--7--9h11h12-------------------------------------------------------------|
E|---------------------------------------------------------------------------|


(2:32)
2x(q...)
G|-----------------------------------------------------------------------|
D|-----------------------------------------------------------------------|
A|-----------------------------------------------------------------------|
E|-9--9--9-9-9--9--9-9--9--9-9-9h11--11-11-11-11-11-11--11-11--11-11-11p9|

G|-----------------------------------------------------------------------|
D|-----------------------------------------------------------------------|
A|-----------------------------------------------------------------------|
E|-9--9--9-9-9--9--9-9--9--9-9-9h11--11-11-11-11-11-11--11-11--11-11-11--|
   q........................................................................
G|---------------------------------------------------------------------------|
D|---------------9--------------------9--------------------------------------|
A|-7--7--9h11h12-------------------------------------------------------------|
E|---------------------------------------------------------------------------|


(3:06)
8x s  s                         (q) s                       (q) 
G|-------------------------------------------------------------|
D|-6--6--6h7h9-11---11-11--11-11p9--9--9-9-9-9-9-9--9-9--9-9p7-|
A|-------------------------------------------------------------|
E|-------------------------------------------------------------|


(3:53)
2x s  s  s            s             q q        (first time only)
G|--------------------8\----11------8h9------------(6)-----------------------|
D|---------------9--9--------------------------------------------------------|
A|-7--7--9h11h12-------------------------------------------------------------|
E|---------------------------------------------------------------------------|


(4:17) [ A|-7-| and then probably something, but it'll be subtle. Figure it out yourself]




| /  slide up
| \  slide down
| h  hammer-on
| p  pull-off
| ~  vibrato
| +  harmonic
| x  Mute note
==============================================================================

            
            
Suggest correction
Creating personal tab
Creating personal tab
You can edit any tab online and save it as your Personal.

You can edit, replace or remove any tab part or add personal notes – all changes will be seen only by you.

Personal tabs can be accessed anytime from any device, even offline.
Learn more »
Give kudos to tab author, rate the tab!
1 2 3 4 5
comments
print report bad tab
guest
You may want to rate the tab now too:
select rating
Wanna post a correction for this tab? Suggest correction