Oops, an error
Loading. Please wait.

Fight Music For The Fight bass

version 1
version 1

Whole song

Interactive

2,141 views 1 this week
1 commentread comment
1 2 3 4 5
1 last vote to show rating
add to favorites
×
Save as Personal and add changes to this tab that will be seen only by you. Learn more ›
×
You can save this tab as Personal to edit and correct it or add notes. All changes will be seen only by you. Learn more »
launch autoscroll
font size
0
reset
guitar tuner
edit
Autoscroll
slow
fast
+/-
esc
set tempo
stop
Author
----------------------------------------------------------------------------
			     Fight Music For the Fight? - Bromheads Jacket
----------------------------------------------------------------------------
Tabbed By : Nick

Tuning: Standard

Intro/Verse
G|------------------------------------------------------------------------|
D|----7-5-----------------------------------------------------------------|
A|--------7-------5-7-(0)-------------------------------------------------|
E|-5-5------8-8-8---------------------------------------------------------|

Chorus
G|--------------------------------------------------------------------------|
D|--------------------------------------------------------------------------|
A|-0-0-0-0-0-0-0-0-5-5-5-5-5-5-5-5-3-3-3-3-3-3-3-3-5-5-5-5-5-5-5-5----------|
E|--------------------------------------------------------------------------|

G|--------------------------------------------------------------------------|
D|--------------------------------------------------------------------------|
A|-0-0-0-0-0-0-0-0-5-5-5-5-5-5-5-5-3-3-x-x-x-x-x-x-3-3----------------------|
E|--------------------------------------------------------------------------|

Guitar Solo
G|---------------------------------------------------------------------------|
D|-----7-5-5-5---------------------------------------------------------------|
A|---------------------------------------------------------------------------|
E|-5-5-----------------------------------------------------------------------|

Intro/Verse x12
Chorus x1
Intro/Verse x12
Chorus x1
Guitar Solo x12
Intro Verse x2
Chorus x1
Suggest correction
Creating personal tab
Creating personal tab
You can edit any tab online and save it as your Personal.

You can edit, replace or remove any tab part or add personal notes – all changes will be seen only by you.

Personal tabs can be accessed anytime from any device, even offline.
Learn more »
Give kudos to tab author, rate the tab!
1 2 3 4 5
comments
print report bad tab
1 comment total.
0 reply
garethfire 538 Sep 20, 2012 04:30 AM

Nice tab, it helped me to learn this song but the verse sounds better like

G|------------------------|
D|----7-5-----------------|
A|--------7-------5-7-----|
E|-5-5------8-8-8-----8---|

and 2nd and 3rd choruses end like this:
A|-3-3-x-x-x-x-x-x-3-3-x-x-x-x-x-x---|

guest
You may want to rate the tab now too:
select rating
Wanna post a correction for this tab? Suggest correction