Oops, an error
Loading. Please wait.

Where Im Coming From Chords

82 views 1 this week
no commentswrite comment
1 2 3 4 5
3 more votes to show rating
add to favorites
launch autoscroll
font size
0
reset
transpose
0
reset
simplify chords
display chords
guitar tuner
Autoscroll
slow
fast
+/-
esc
set tempo
stop
Help us to improve Ultimate-Guitar.com Take our survey!
×
Author
Difficulty
intermediate
About this tab version
Found a mistake in one of the lines. Was this info helpful? Yes No
Tabbed by: Mohamed Awad (Eugene, OR. Oct 6th, 2016)

Another tune from Bronze Radio Return. This one was featured at the perfect moment on the show Shameless. 
Enjoy.

[Intro]

   E                        B 
e|------------------------|-----------------------|
B|-----9-----9-----9----9-|-----7----7-----7----7-|
G|------------------------|-----------------------|
D|------------------------|-----------------------|
A|--7-----7-----7----7----|-----------------------|
E|------------------------|--7----7-----7----7----|

   E                        A   
e|------------------------|------------------------|
B|-----9-----9-----9----9-|----10----10----10---10-|
G|------------------------|------------------------|
D|------------------------|------------------------|
A|--7-----7-----7----7----|--0----0-----0----0-----|
E|------------------------|------------------------|


[Verse]

          B                  E
I've seen lost and I've seen found
    B             E
From sidewalks to interstates
    B             C#m
I'm bound to this place
     B              E
I've grown from this ground


[Chorus]

        A                 E
I'm not pretty enough for pop
        B               B/E
I'm not cool enough for indie rock
    A                 E
Too happy to sing the blues
        B                A
And I'm too damn shy for dancing shoes
C#m                      E 
Street cred comes from a small-town road
    A                     E                     A
Off Cedar Street with the tall pines blowing on me
      E          B
Now I know, no I may not know where I'll go
                  A
That I know where I'm coming from

[Interlude]

  E                        B 
e|------------------------|-----------------------|
B|-----9-----9-----9----9-|-----7----7-----7----7-|
G|------------------------|-----------------------|
D|------------------------|-----------------------|
A|--7-----7-----7----7----|-----------------------|
E|------------------------|--7----7-----7----7----|

   E                        A   
e|------------------------|----------7------------|
B|-----9-----9-----9----9-|----10----------10---9-|
G|------------------------|-----------------------|
D|------------------------|-----------------------|
A|--7-----7-----7----7----|--0----0-----0----0----|
E|------------------------|-----------------------|

[Verse]

  B          E
I take and I show
         B              E            B
From the faces and the places that I go
     C#m          B                    E                 
Each one I use to make all the things I know

 B                    E
Cause when I talk and when I sing
            B                  E
It's like a cinder block and a diamond ring
B                        C#m
One small nugget and the other one shines
B                 E   
I use 'em all the time

[Chorus]

        A                 E
I'm not pretty enough for pop
        B               B/E
I'm not cool enough for indie rock
    A                 E
Too happy to sing the blues
        B                A
And I'm too damn shy for dancing shoes
C#m                      E 
Street cred comes from a small-town road
    A                     E                     A
Off Cedar Street with the tall pines blowing on me
      E          B
Now I know, no I may not know where I'll go
                  A
That I know where I'm coming from

[Bridge]
E         C#m     A
Before my time is done
E       C#m        A   E
May not know what I'll become
A      E           B                           A      
May not know that I know that I know where I'm coming from

[Chorus]
        A                 E
I'm not pretty enough for pop
        B               B/E
I'm not cool enough for indie rock
    A                 E
Too happy to sing the blues
        B                A
And I'm too damn shy for dancing shoes
C#m                      E 
Street cred comes from a small-town road
    A                     E                     
Off Cedar Street with the tall pines blowing
  A        E    A           E
I may not know,  where I'll go
A      E           B                           A      
May not know that I know that I know where I'm coming from
Suggest correction
Give kudos to tab author, rate the tab!
1 2 3 4 5
comments
print report bad tab
guest
You may want to rate the tab now too:
select rating
Wanna post a correction for this tab? Suggest correction