Oops, an error
Loading. Please wait.

Taking You There Acoustic chords

by Broods
1,261 views 12 this week
1 commentread comment
1 2 3 4 5
x 4
add to favorites
×
Save as Personal and add changes to this tab that will be seen only by you. Learn more ›
×
You can save this tab as Personal to edit and correct it or add notes. All changes will be seen only by you. Learn more »
launch autoscroll
font size
0
reset
transpose
0
reset
simplify chords
display chords
guitar tuner
edit
Autoscroll
slow
fast
+/-
esc
set tempo
stop
Author
Strumming
There is no strumming pattern for this song yet. and get +5 IQ
Verse progression:

e|-------0-----------0-----------0-----------0-----------0-----------0-----------0-----------0-----|
B|-----1---1-------1---1-------1---1-------1---1-------1---1-------1---1-------1---1-------1---1---|
G|---2-------2---2-------2---2-------2---2-------2---2-------2---2-------2---2-------2---2-------2-|
D|-------------------------------------------------------------------------------------------------|
A|-0-----------0-----------2-----------3-----------------------------------------------------------|
E|-------------------------------------------------1-----------1-----------1-----------1-----------|

Chorus progression:

e|-------0-----------0-----------0-----------0-----------0-----------0-----------0-----------0-----|
B|-----0---0-------0---0-------0---0-------0---0-------1---1-------1---1-------1---1-------1---1---|
G|---0-------0---0-------0---0-------0---0-------0---2-------2---2-------2---2-------2---2-------2-|
D|-------------------------------------------------------------------------------------------------|
A|-------------------------2-----------3-----------------------------------------------------------|
E|-2-----------2-----------------------------------1-----------1-----------1-----------1-----------|


[Intro]

Play verse progression (2x)


[Verse]

Am                        Am/B     Am/C  Am/F
In the dead of night I'll meet you in my sleep
Am                              Am/B    Am/C    Am/F
And in the morning light you'll wake up next to me
Am                          Am/B     Am/C  Am/F
Like a dream come true I'll take you where I roam
Am                        Am/B     Am/C  Am/F
Then follow you back home

                Am     Am/B     Am/C  Am/F
Tell me you care
                Am     Am/B     Am/C  Am/F
Tell me you care

Am                   Am/B   Am/C   Am/F
If I lose my way and forget what I need
Am                    Am/B     Am/C    Am/F
Just remind me now of what you give to me
Am                      Am/B    Am/C      Am/F
If you hold my hand and take me where you go
Am                          Am/B  Am/C  Am/F
I'll show you the side that no one knows

                Am     Am/B     Am/C  Am/F
I'm taking you there
                Am     Am/B     Am/C  Am/F
I'm taking you there


[Chorus]
                           G G/B
If scars are for the living                                                                         
     G/C        Am/F
Then I could be forgiven                 
                        G G/B
And everything you need                  
        G/C  Am/F                                                            
I could give you                         
                           G G/B
If scars are for the living              
     G/C        Am/F                                                           
Then I could be forgiven                 
                       G
And everything you have                  
G/B G/C Am/F                                                            
I take too


[Verse 2]

                Am     Am/B     Am/C  Am/F
Tell me you care
                Am     Am/B     Am/C  Am/F
I'm taking you there
                Am     Am/B     Am/C  Am/F
Tell me you care
(If scars are for the living, I could be forgiven)
                Am     Am/B     Am/C  Am/F
I'm taking you there
(If scars are for the living, I could be forgiven)
                Am     Am/B     Am/C  Am/F
Tell me you care

            
            
Suggest correction
Creating personal tab
Creating personal tab
You can edit any tab online and save it as your Personal.

You can edit, replace or remove any tab part or add personal notes – all changes will be seen only by you.

Personal tabs can be accessed anytime from any device, even offline.
Learn more »
comments
print report bad tab
1 comment total.
0 reply
erixtabs 24 May 19, 2016 09:22 AM

tabbed from this version:

https://www.youtube.com/watch?v=unH9laYkWNI

guest
You may want to rate the tab now too:
select rating
Wanna post a correction for this tab? Suggest correction