Oops, an error
Loading. Please wait.

Betty Chords

version 3
version 3

Whole song

3,997 views 1 this week
3 commentsread comments
1 2 3 4 5
x 3
add to favorites
launch autoscroll
font size
0
reset
transpose
0
reset
display chords
guitar tuner
Autoscroll
slow
fast
+/-
esc
set tempo
stop
Help us to improve Ultimate-Guitar.com Take our survey!
×
Capo
8th fret
-------------------------------------------------------------------------------
                             BETTY - Brooke Fraser
-------------------------------------------------------------------------------
Tabbed by: Jannah

Tuning: Standard

Capo 8

Intro

E|----------------2------2------2----|
B|--0--------0-----------------------|         
G|-------0---------------------------| x2 + Verse 1
D|--0-----------------0------0-------|
A|-----------------------------------|
E|-----------------------------------|
                       
                      A
in the shape of Canada...
         Em  
that you try to keep a secret


E|----------------2------2------2----|
B|--0--------0-----------------------|
G|-------0---------------------------| 
D|--0-----------------0------0-------|  x2 + Verse 2
A|-----------------------------------|
E|-----------------------------------|

                     A
before they wander off...
   Em                        Bm
to hide inside their sockets


[Chorus] - DOWN STRUM
G                           
  You've got your scars and
A
  You've got your birthmarks
G                    A              Em   
  You've got Toronto hiding on your hip, honey
G                 
  You've got your secrets
A
  You've got your regrets
G           A    
Darling, we all do


E|----------------2------2------2----|
B|--0--------0-----------------------|
G|-------0---------------------------| x2 + Verse 3
D|--0-----------------0------0-------|
A|-----------------------------------|
E|-----------------------------------|

             A          Em               Bm
If a wife at all, it's a silly institution

or so you keep insisting


[Chorus] - DOWN STRUM
G                           
  You've got your scars and
A
  You've got your birthmarks
G                    A              Em   
  You've got Toronto hiding on your hip, honey
G                 
  You've got your secrets
A
  You've got your regrets
G           A      Em
Darling, we all do


[Bridge]
G                            A
  You're cool coy 'bout your strawberry hip
Bm                              D
  It's you that's hidden by the expectations
   G                          A                Bm
We want to see you, won't you show us where to start

G                                A
  You're talking trash with your replica lips
D                             Bm
  It's you that tickle in the conversation
G                       A
  Sweet Betty won't you show us who you are?


[Chorus] - DOWN STRUM
G                           
  You've got your scars and
A
  You've got your birthmarks
G                    A              Em   
  You've got Toronto hiding on your hip, honey
G                 
  You've got your secrets
A
  You've got your regrets
G           A    
Darling, we all do


E|----------------2------2------2----|
B|--0--------0-----------------------|
G|-------0---------------------------| 
D|--0-----------------0------0-------| x2
A|-----------------------------------|
E|-----------------------------------|


You got a quick snap lock on your cold, cold heart...


E|----------------2------2------2----|
B|--0--------0-----------------------|
G|-------0---------------------------| 
D|--0-----------------0------0-------| x2
A|-----------------------------------|
E|-----------------------------------|  
Suggest correction
Give kudos to tab author, rate the tab!
1 2 3 4 5
comments
print report bad tab
3 comments total.
0 reply
anni51 127 Sep 28, 2011 06:57 AM

I like.

There's one note that doesn't sound like on the record. I'll post the correct tab below as it's fairly difficult to describe:


E|----------------2------2------2----|
B|--0--------0-----------------------|
G|-------0---------------------------|
D|--0-----------------0------0-------|
A|-----------------------------------|
E|-----------------------------------|

0 reply
anni51 127 Sep 28, 2011 06:58 AM

Sorry, i forget the correction above. Here it is:


E|-----------0----2------2------2----|
B|--0--------------------------------|
G|-------0---------------------------|
D|--0-----------------0------0-------|
A|-----------------------------------|
E|-----------------------------------|

0 reply
allensue 10 Mar 09, 2014 03:39 AM

Cheers,
Been trying to pick out this for a while

guest
You may want to rate the tab now too:
select rating
Wanna post a correction for this tab? Suggest correction