Oops, an error
Loading. Please wait.

Lifeline Tab

9,672 views 6 this week
3 commentsread comments
1 2 3 4 5
x 6
add to favorites
launch autoscroll
font size
0
reset
how to read this tab
guitar tuner
×
Best way to learn
"Lifeline"
Autoscroll
slow
fast
+/-
esc
set tempo
stop
Author
Capo
  follow
1st fret
hey, another tab by brooke fraser, good music! we love you brooke! this is basically
chords but you have to tweek them as you play them to make them sound like shes playing
it! standard tune your guitar then put a capo on the 1st fret. Brings it up a fret! Here
goes, remember to strum the notes not pick at them.

Heres the strum pattern to help the learners.
v = down strum
^ = up strum

v v v ^ v|^ ^ v ^v ^|^ ^ v ^v ^|^^^v^^^^^|   Its kind of hard to read but find your own way!

----------------------------------------------------------------------------

Intro / Verse

        Em          C            
e ------0-0-0-|-0-0-0-0-0-|/x-x-x-x-x-|-3-3-333-2-|
b ------0-0-0-|-1-1-1-1-1-|/3-3-3-3-3-|-3-3-333-3-|
g ------0-0-0-|-0-0-0-0-0-|/0-0-0-0-0-|-0-0-000-0-|
d ------2-2-2-|-2-2-2-2-2-|/4-4-4-4-4-|-4-4-------|
a ------2-2-2-|-3-3-3-3-3-|/5-5-5-5-5-|-5-5-------|
E --0~--0-0-0-|-x-x-x-x-x-|/x-x-x-x-x-|-x-x-------|

Chorus

      |  Am  |  Em  |  G   |  D   | 

      |  Am  |  Em  |  D~  | ~~~~ |

Just strum those chords, listen to the song, if your a beginner and need to learn those chords look here


http://www.ultimate-guitar.com/lessons/chords/basic_chords.html
Suggest correction
comments
print report bad tab
3 comments total.
+1 reply
Johnny_H 50 Oct 19, 2004 08:00 PM

Well done mate, good job. Much easier to simplify it with a capo and get the same effect. Are you a Kiwi? I am a brit in NZ in wellington.

0 reply
C Hardiman 20 Apr 21, 2005 08:00 PM

Glad to see someone posted it with a capo, it sounds much better! Love this kind of acoustic song with good rhythm. cheers :-)

0 reply
WellWellMrBond 103 Apr 29, 2006 06:06 PM

It's all good except for the last bit of the intro/verse.

You have just this:
e |-3-3-333-2-|
b |-3-3-333-3-|
g |-0-0-000-0-|
d |-4-4-------|
a |-5-5-------|
E |-x-x-------|

but it should be:
e |-5-5-333-2-|
b |-3-3-333-3-|
g |-0-0-000-0-|
d |-4-4-4-----|
a |-5-5-5-----|
E |-x-x-x-----|

It then goes through the whole intro again, but this time finishes off with:
e |-5-5-5/777-|
b |-3-3-3-000-|
g |-0-0-0-000-|
d |-4-4-4-----|
a |-5-5-5-----|
E |-x-x-x-----|

guest
You may want to rate the tab now too:
select rating
Wanna post a correction for this tab? Suggest correction