Oops, an error
Loading. Please wait.

May Waltz Tab

9,776 views 9 this week
1 commentread comment
1 2 3 4 5
excellent!
x 3
add to favorites
launch autoscroll
font size
0
reset
how to read this tab
guitar tuner
Autoscroll
slow
fast
+/-
esc
set tempo
stop
Help us to improve Ultimate-Guitar.com Take our survey!
×
Author
e|-------------0--0-------------0--0---------------0--0----------------0--0--|
B|----2--2-----2--2----2--2-----2--2------2--2-----2--2------2--2------2--2--|
G|----2--2-------------2--2---------------2--2---------------2--2------------|
D|----------2-----------------2-----------------2-------------------2--------|
A|--0---------------0-----------------0--------------------0-----------------|
E|---------------------------------------------------------------------------|
				V1  I've  got  a  mind  to  take you away 

				V2  I've got a smile that's only for you


e|-----------------------------------------------------------0--0------------|
B|---------------5--5-------------------------------2--2-----2--2----2--2----|
G|-----6--6------6--6------7--7-------7--7----------2--2-------------2--2----|
D|-----6--6----------------7--7-------7--7----------------2------------------|
A|--4---------4--------5----------5------------0-----------------0-----------|
E|---------------------------------------------------------------------------|
  to some white sand and a palm tree parade   I've got a mind to take you  
  
  exchanged in secret the way lovers do       I've got a smile that's only 

e|-----0--0-------------------------------------0--0------------------0--0---|
B|-----2--2----------------------------2--2-----2--2-------2--2-------2--2---|
G|---------------7--7-------7--7-------2--2----------------2--2--------------| 
D|--2------------7--7-------7--7-------------2--------------------2----------|
A|----------5-----------7-----------0-----------------0----------------------|
E|---------------------------------------------------------------------------|
   away     I've got a mind to go
   
   for you  Baby I've got a smile

e|------5--5----------5------------------------------------------------------|
B|---------------------------5---------5-------------------------------------|
G|------6--6----------6-------------6-----6-----------7--7------7--7---------|
D|--4-------------4--------------6-----------6--------7--7------7--7---------|
A|---------------------------4---------------------5---------5---------------|
E|---------------------------------------------------------------------------|
   Morning sneaks up on us  shines on our sheets   waking me into my 

e|-----------4----------5----------5-----------------------------------------|
B|--5-----------5-------7----7--------7-------5---------5--------------------|
G|--------6--------6----6-------6--------6--------6--------6---------7--7----|
D|-----6---------------------------------------------6--------6------7--7----|
A|--0-----------------------------------------4-------------------5----------|
E|---------------------------------------------------------------------------|
    favorite dream     My best imagining    never implied   that you'd be the

e|---------------------------------------------------------------------------|
B|---------------7--7-----7--7-----7--7-----7--7-----------------------------|
G|-----7--7-------------------------------------------7--7-------7--7--------|
D|-----7--7-------------------------------------------7--7-------7--7--------|
A|--5---------------------------------------------5----------5---------------|
E|-------------7-------7--------7--------7-----------------------------------|
   dawning  that ended my night

e|------------------------------0--0-------------0--0------------------------|
B|----------------------2--2----2--2----2--2-----2--2------------------------|
G|-----7--7-----7--7----2--2------------2--2-------------7--7-----7--7-------|
D|-----7--7-----7--7----------2---------------2----------7--7-----7--7-------|
A|--5--------5--------0--------------0----------------5--------5-------------|
E|---------------------------------------------------------------------------|

e|------------------------------0--0-------------0--0---------------0--0-----|
B|----------------------2--2----2--2---2--2------2--2-----2--2------2--2-----|
G|-----7--7-----7--7----2--2-----------2--2---------------2--2---------------|
D|-----7--7-----7--7----------2---------------2------------------2-----------|
A|--5--------5--------0--------------0----------------0----------------------|
E|---------------------------------------------------------------------------|
					I've  got the will to 

e|------------0--0-----------------------------------------------------------|
B|----2--2----2--2-----------------------5-----------------------------------|
G|----2--2----------------------6-----6-----6-----------7--7-------7---------|
D|----------2----------------------6--------------------7--7-------7---------|
A|--0---------------------------4--------------4-----5----------5------------|
E|---------------------------------------------------------------------------|
   love you always  Through the chilliest winter the hot summer haze 

e|---------------0--0--------------0--0--------------------------------------|
B|------2--2-----2--2------2--2----2--2-----------------------------2--2-----|
G|------2--2---------------2--2-------------7--7--------7--7--------2--2-----|
D|-------------2-----------------2----------7--7--------7--7-----------------|
A|--0-------------------0----------------5-----------7------------0----------|
E|---------------------------------------------------------------------------|
  I've got the will to love you always  I've got the will to love

e|-------------5-----------5-------------------------------------------------|
B|-----2--2-------7--7--------7-----5-------5--------------------------------|
G|-----2--2----6--6--6--6--------------6-------6------7--7----7--7-----------|
D|--2-------------------------------------6-----------7--7----7--7-----------|
A|----------------------------------4---------------5-------5----------0-----|
E|---------------------------------------------------------------------------|
              Honey I know it won't always be sweet Loving a person is not 

e|-----------------5----------5----------------------------------------------|
B|--2--2----2--2---7---7---------7-------5-------5---------------------------|
G|--2--2----2--2---6------6-----------------6------6--------7--7-------7--7--|
D|---------------------------------------------6------6-----7--7-------7--7--|
A|-------0-------------------------------4---------------5----------5--------|
E|---------------------------------------------------------------------------|
   a small feat Don't give up on me and I won't on you  pack your bags baby

e|----2--2----2--2----2--2----2--2-------------------------------------------|
B|----0--0----0--0----0--0----0--0------------------------------------2--2---|
G|------------------------------------7--7----7--7----7--7----7--7----2--2---|
D|------------------------------------7--7----7--7----7--7----7--7-----------|
A|--2------2-------2--------2-------5-------5-------5-------5-------0--------|
E|---------------------------------------------------------------------------|
  cause I'm taking you

e|----0--0-----------0--0----------------------------------------------------|
B|----2--2---2--2----2--2--------------------------------------5-------------|
G|-----------2--2-----------7--7----7--7-----7-----------------6-------------|
D|--2--------------2--------7--7----7--7-----7-----------------6-------------|
A|--------0---------------5-------5-------5--------------------0-------------|
E|---------------------------------------------------------------------------|
Suggest correction
Give kudos to tab author, rate the tab!
1 2 3 4 5
comments
print report bad tab
1 comment total.
0 reply
themrreeguy 10 wrote on May 14 2013, 08:31 pm

love it love it love it!

guest
You may want to rate the tab now too:
select rating
Wanna post a correction for this tab? Suggest correction