Oops, an error
Loading. Please wait.

Building Bridges Tab

2,405 views 1 this week
1 commentread comment
1 2 3 4 5
please rate
add to favorites
launch autoscroll
font size
0
reset
how to read this tab
guitar tuner
Tab Pro tools
  • play this tab
  • loop segment
  • change instrument
  • show fretboard
  • metronome
×
Best way to learn
"Building Bridges"
Autoscroll
slow
fast
+/-
esc
set tempo
stop
Contributor
Difficulty
intermediate
Chords;
A, F#, D, E

INTRO
Rythm guitar plays;
(PLAY 1X)
E-5--5--5--5---2--2--2--2---------------5--5--5--5--|
B-5--5--5--5---2--2--2--2---7--7--9--9--5--5--5--5--|
G-6--6--6--6---2--2--2--2---7--7--9--9--6--6--6--6--|
D-7--7--7--7----------------7--7--9--9--7--7--7--7--|
A---------------------------------------------------|
E---------------------------------------------------|

Lead guitar plays
E----------------------------------------------------------------------|
B----------------------------------------------------------------------|
G----9/11~~-9h11--9---------------/6~~---------------------------------|
D-7~~-----------11--11-9-9\7-7~~~-----9-9\7~~---/11p9\7-9p7---7~~~-----|
A-----------------------------------------------------------9----------|
E----------------------------------------------------------------------|


VERSE 1
Rythm guitar (PLAY 2X)
E-5--5--5--5---2--2--2--2---------------5--5--5--5--|
B-5--5--5--5---2--2--2--2---7--7--9--9--5--5--5--5--|
G-6--6--6--6---2--2--2--2---7--7--9--9--6--6--6--6--|
D-7--7--7--7----------------7--7--9--9--7--7--7--7--|
A---------------------------------------------------|
E---------------------------------------------------|

Lead guitar
How long can this keep goin on?
E-----------------------------------------------|
B-----------------------------------------------|
G-----------------------------------------------|
D-----7----7~~------//11~~-11p9\7---7~~~~-------|
A-7/9---9-------------------------9-------------|
E-----------------------------------------------|

What else am I gonna do?
E-----10p9~~-------7~~---------5~~~----------|
B--------------------------------------------|
G-7/9------------6/7---------4/6-------------|
D--------------------------------------------|
A--------------------------------------------|
E--------------------------------------------|


CHORUS
Rythm guitar (PLAY 1X)
E-2--2---0--0---2--2---0--0---2--2---0~~---2~~2~~-|
B-3--3---2--2---3--3---2--2---3--3---2~~---2~~3~~-|
G-2--2---2--2---2--2---2--2---2--2---2~~1~~2~~2~~-|
D--------2--2----------2--2----------2~~2~~4~~----|
A---------------------------------------2~~4~~----|
E---------------------------------------0~~2~~----|

Lead guitar
Won’t keep us apart...
E---------------------------------------------------|
B-------9-------------------------------------------|
G-//11----11p9--11p9--------------------------------|
D----------------------9-9/12~~~--------------------|
A---------------------------------------------------|
E---------------------------------------------------|

E------------------------------|
B------------------------------|
G------------------------------|
D--/11p9\7-9p7---7~~~----------|
A--------------9---------------|
E------------------------------|

VERSE 2
Rythm guitar (PLAY 2X)
E-5--5--5--5---2--2--2--2---------------5--5--5--5--|
B-5--5--5--5---2--2--2--2---7--7--9--9--5--5--5--5--|
G-6--6--6--6---2--2--2--2---7--7--9--9--6--6--6--6--|
D-7--7--7--7----------------7--7--9--9--7--7--7--7--|
A---------------------------------------------------|
E---------------------------------------------------|

Lead guitar
Don’t leave me beggin on my knees
E-------------------------|
B-------------------------|
G-------------------------|
D--/11p9\7-9p7---7~~~-----|
A--------------9----------|
E-------------------------|

How long can this keep goin on?
E--/12\10-10\9---9~~~---|
B--/14\12-12\10-10~~----|
G-----------------------|
D-----------------------|
A-----------------------|
E-----------------------|

CHORUS 2
(PLAY 1X)
E-2--2---0--0---2--2---0--0---2--2---0~~---2~~2~~-|
B-3--3---2--2---3--3---2--2---3--3---2~~---2~~3~~-|
G-2--2---2--2---2--2---2--2---2--2---2~~1~~2~~2~~-|
D--------2--2----------2--2----------2~~2~~4~~----|
A---------------------------------------2~~4~~----|
E---------------------------------------0~~2~~----|

GUITAR SOLO
Rythm guitar (play intro part)

Lead Guitar
E------12-12~~~~~12-12~~---12-12/14~~---------------------------------|
B-12^14-----12^14-----12/14---------12^14r12-10-12-12^14-12~-10-------|
G--------------------------------------------------------------11~~~--|
D---------------------------------------------------------------------|
A---------------------------------------------------------------------|
E---------------------------------------------------------------------|

E--------------------------------------------------------------17-17-17~~--|
B--------------------------------7----------------10-10-10--/17------------|
G--//11~-11--9h11---------------9--6-7^9r7-----/11-------------------------|
D-----------------/11-9-7---9^11-----------9-7-----------------------------|
A-------------------------9------------------------------------------------|
E--------------------------------------------------------------------------|

3rd CHORUS
PLAY 2X
E-2--2---0--0---2--2---0--0---2--2---0~~---2~~2~~-|
B-3--3---2--2---3--3---2--2---3--3---2~~---2~~3~~-|
G-2--2---2--2---2--2---2--2---2--2---2~~1~~2~~2~~-|
D--------2--2----------2--2----------2~~2~~4~~----|
A---------------------------------------2~~4~~----|
E---------------------------------------0~~2~~----|

OUTRO
(rythm guitar plays the intro again)

Lead guitar
E-------12-12-------------------------------------------|
B--12^14~~~~~12^14~~--12^14r12-10--12-12^14-10----------|
G----------------------------------------------11-11~~--|
D-------------------------------------------------------|
A-------------------------------------------------------|
E-------------------------------------------------------|

I’m building bridges...
E-------------------------|
B-------------------------|
G-----9-11p9------9-------|
D--11--------11-9--9h11~~-|
A-------------------------|
E-------------------------|

Ooh, I...
E------------------------------|
B-------10-10-10-12-12^14~~----|
G--//11------------------------|
D------------------------------|
A------------------------------|
E------------------------------|

The song fades until the end, so the rest is up to you!  GOOD LUCK!  JB
comments
We did not receive enough feedback on this tab! Please rate:
print report bad tab
1 2 3 4 5
1 comment total.
0 reply
Hdog69 wrote on June 9 2009, 10:10 pm

awsome thanks alot you are pretty much dead on with this but the part

E-5--5--5--5---2--2--2--2---------------5--5--5--5--|
B-5--5--5--5---2--2--2--2---7--7--9--9--5--5--5--5--|
G-6--6--6--6---2--2--2--2---7--7--9--9--6--6--6--6--|
D-7--7--7--7----------------7--7--9--9--7--7--7--7--|
A---------------------------------------------------|
E---------------------------------------------------|

I think the -2 part should just stay -5 (for the rythm guitar)
-2 -5
-2 -6
-7

I want to post or [tab]
guest
You may want to rate the tab now too:
select rating
Please do not post tabs as comments. Select "correction" instead!